  0
SECTION
  2
HEADER
  9
$EXTMIN
 10
-184411
 20
-20740
  9
$EXTMAX
 10
95588.8
 20
1485
  9
$LIMMIN
 10
0
 20
0
  9
$LIMMAX
 10
2100
 20
1485
  9
$LTSCALE
 40
5.000000
  0
ENDSEC
  0
SECTION
  2
TABLES
  0
TABLE
  2
LTYPE
 70
8
  0
LTYPE
  2
DOT
  3
点線
 70
    64
 72
    65
 73
     2
 40
2
 49
1
 49
-1
  0
LTYPE
  2
HIDDEN
  3
破線
 70
    64
 72
    65
 73
     2
 40
3
 49
2
 49
-1
  0
LTYPE
  2
DASHED
  3
長破線
 70
    64
 72
    65
 73
     2
 40
7
 49
6
 49
-1
  0
LTYPE
  2
DASHDOT
  3
一点鎖線
 70
    64
 72
    65
 73
     4
 40
43
 49
40
 49
-1
 49
1
 49
-1
  0
LTYPE
  2
CENTER
  3
長一点鎖線
 70
    64
 72
    65
 73
     4
 40
63
 49
60
 49
-1
 49
1
 49
-1
  0
LTYPE
  2
DIVIDE
  3
二点鎖線
 70
    64
 72
    65
 73
     6
 40
45
 49
40
 49
-1
 49
1
 49
-1
 49
1
 49
-1
  0
LTYPE
  2
PHANTOM
  3
長二点鎖線
 70
    64
 72
    65
 73
     6
 40
65
 49
60
 49
-1
 49
1
 49
-1
 49
1
 49
-1
  0
ENDTAB
  0
TABLE
  2
LAYER
 70
     4
  0
LAYER
  2
1
 70
     0
 62
     7
  6
CONTINUOUS
  0
LAYER
  2
7
 70
     0
 62
     7
  6
CONTINUOUS
  0
LAYER
  2
11
 70
     0
 62
     7
  6
CONTINUOUS
  0
LAYER
  2
17
 70
     0
 62
     7
  6
CONTINUOUS
  0
ENDTAB
  0
TABLE
  2
STYLE
 70
4
  0
STYLE
  2
STANDARD
 70
    64
 40
0.0
 41
1.0
 42
0.0
 50
0.0
 71
     0
  3
txt
  4
bigfont
  0
ENDTAB
  0
ENDSEC
  0
SECTION
  2
BLOCKS
  0
ENDSEC
  0
SECTION
  2
ENTITIES
  0
LINE
  8
1
  6
CONTINUOUS
  62
1
 10
2100
 20
1485
 11
0
 21
1485
  0
LINE
  8
1
  6
CONTINUOUS
  62
1
 10
2100
 20
0
 11
0
 21
0
  0
LINE
  8
1
  6
CONTINUOUS
  62
1
 10
2099.74
 20
0
 11
2099.74
 21
1485
  0
LINE
  8
1
  6
CONTINUOUS
  62
1
 10
-0.258621
 20
0
 11
-0.258621
 21
1485
  0
LINE
  8
11
  6
CONTINUOUS
  62
4
 10
-7661.23
 20
-15490
 11
95588.8
 21
-15490
  0
LINE
  8
11
  6
CONTINUOUS
  62
4
 10
-88661.2
 20
-10490
 11
-184411
 21
-10490
  0
LINE
  8
11
  6
CONTINUOUS
  62
4
 10
-88661.2
 20
-13740
 11
-184411
 21
-13740
  0
LINE
  8
11
  6
CONTINUOUS
  62
4
 10
-88661.2
 20
-16990
 11
-184411
 21
-16990
  0
LINE
  8
11
  6
CONTINUOUS
  62
4
 10
-51661.2
 20
-20240
 11
-51661.2
 21
-7240.04
  0
LINE
  8
11
  6
CONTINUOUS
  62
4
 10
-184411
 20
-20240
 11
95588.8
 21
-20240
  0
LINE
  8
11
  6
CONTINUOUS
  62
4
 10
-184411
 20
-20290
 11
95588.8
 21
-20290
  0
LINE
  8
11
  6
CONTINUOUS
  62
4
 10
-184411
 20
-20340
 11
95588.8
 21
-20340
  0
LINE
  8
11
  6
CONTINUOUS
  62
4
 10
-184411
 20
-20390
 11
95588.8
 21
-20390
  0
LINE
  8
11
  6
CONTINUOUS
  62
4
 10
-184411
 20
-20440
 11
95588.8
 21
-20440
  0
LINE
  8
11
  6
CONTINUOUS
  62
4
 10
-184411
 20
-20490
 11
95588.8
 21
-20490
  0
LINE
  8
11
  6
CONTINUOUS
  62
4
 10
-184411
 20
-20540
 11
95588.8
 21
-20540
  0
LINE
  8
11
  6
CONTINUOUS
  62
4
 10
-184411
 20
-20590
 11
95588.8
 21
-20590
  0
LINE
  8
11
  6
CONTINUOUS
  62
4
 10
-184411
 20
-20640
 11
95588.8
 21
-20640
  0
LINE
  8
11
  6
CONTINUOUS
  62
4
 10
-184411
 20
-20690
 11
95588.8
 21
-20690
  0
LINE
  8
11
  6
CONTINUOUS
  62
4
 10
-184411
 20
-6790.04
 11
95588.8
 21
-6790.04
  0
LINE
  8
11
  6
CONTINUOUS
  62
4
 10
-184411
 20
-6840.04
 11
95588.8
 21
-6840.04
  0
LINE
  8
11
  6
CONTINUOUS
  62
4
 10
-184411
 20
-6890.04
 11
95588.8
 21
-6890.04
  0
LINE
  8
11
  6
CONTINUOUS
  62
4
 10
-184411
 20
-6940.04
 11
95588.8
 21
-6940.04
  0
LINE
  8
11
  6
CONTINUOUS
  62
4
 10
-184411
 20
-6990.04
 11
95588.8
 21
-6990.04
  0
LINE
  8
11
  6
CONTINUOUS
  62
4
 10
-184411
 20
-7040.04
 11
95588.8
 21
-7040.04
  0
LINE
  8
11
  6
CONTINUOUS
  62
4
 10
-184411
 20
-7090.04
 11
95588.8
 21
-7090.04
  0
LINE
  8
11
  6
CONTINUOUS
  62
4
 10
-184411
 20
-7140.04
 11
95588.8
 21
-7140.04
  0
LINE
  8
11
  6
CONTINUOUS
  62
4
 10
-184411
 20
-7190.04
 11
95588.8
 21
-7190.04
  0
LINE
  8
11
  6
CONTINUOUS
  62
4
 10
-184411
 20
-6740.04
 11
95588.8
 21
-6740.04
  0
LINE
  8
11
  6
CONTINUOUS
  62
4
 10
-184411
 20
-7240.04
 11
95588.8
 21
-7240.04
  0
LINE
  8
11
  6
CONTINUOUS
  62
4
 10
-184411
 20
-20740
 11
95588.8
 21
-20740
  0
LINE
  8
11
  6
CONTINUOUS
  62
4
 10
67588.8
 20
-20240
 11
67588.8
 21
-7240.04
  0
LINE
  8
11
  6
DOT
  62
4
 10
-117661
 20
-20240
 11
-117661
 21
-7240.04
  0
LINE
  8
11
  6
CONTINUOUS
  62
4
 10
-88661.2
 20
-20240
 11
-88661.2
 21
-7240.04
  0
LINE
  8
11
  6
CONTINUOUS
  62
4
 10
-7661.23
 20
-20240
 11
-7661.23
 21
-7240.04
  0
LINE
  8
11
  6
CONTINUOUS
  62
4
 10
14338.8
 20
-20240
 11
14338.8
 21
-7240.04
  0
LINE
  8
1
  6
CONTINUOUS
  62
6
 10
99.7414
 20
1417.5
 11
2039.66
 21
1417.5
  0
LINE
  8
17
  6
CONTINUOUS
  62
2
 10
99.7414
 20
137.415
 11
2039.66
 21
137.415
  0
LINE
  8
1
  6
CONTINUOUS
  62
6
 10
99.7414
 20
52.5667
 11
2039.66
 21
52.5667
  0
LINE
  8
17
  6
CONTINUOUS
  62
4
 10
99.7414
 20
109.132
 11
782.587
 21
109.132
  0
LINE
  8
17
  6
CONTINUOUS
  62
4
 10
99.7414
 20
80.8497
 11
782.587
 21
80.8497
  0
LINE
  8
17
  6
CONTINUOUS
  62
4
 10
1346.73
 20
94.9907
 11
1954.81
 21
94.9907
  0
LINE
  8
17
  6
CONTINUOUS
  62
4
 10
1671.98
 20
52.5667
 11
1671.98
 21
137.415
  0
LINE
  8
17
  6
CONTINUOUS
  62
4
 10
1813.4
 20
52.5667
 11
1813.4
 21
137.415
  0
LINE
  8
17
  6
CONTINUOUS
  62
4
 10
1954.81
 20
52.5667
 11
1954.81
 21
137.415
  0
LINE
  8
17
  6
CONTINUOUS
  62
4
 10
782.587
 20
52.5667
 11
782.587
 21
137.415
  0
LINE
  8
17
  6
CONTINUOUS
  62
4
 10
1346.73
 20
52.5667
 11
1346.73
 21
137.415
  0
LINE
  8
1
  6
CONTINUOUS
  62
6
 10
2039.66
 20
52.5667
 11
2039.66
 21
1417.5
  0
LINE
  8
1
  6
CONTINUOUS
  62
6
 10
99.7414
 20
52.5667
 11
99.7414
 21
1417.5
  0
LINE
  8
1
  6
CONTINUOUS
  62
7
 10
1742.1
 20
149.527
 11
2024.43
 21
149.527
  0
LINE
  8
1
  6
CONTINUOUS
  62
7
 10
2024.43
 20
149.527
 11
2024.43
 21
185.513
  0
LINE
  8
1
  6
CONTINUOUS
  62
7
 10
2024.43
 20
185.513
 11
1742.1
 21
185.513
  0
LINE
  8
1
  6
CONTINUOUS
  62
7
 10
1742.1
 20
185.513
 11
1742.1
 21
149.527
  0
LINE
  8
1
  6
PHANTOM
  62
7
 10
1467.61
 20
659.411
 11
1467.61
 21
1417.5
  0
LINE
  8
1
  6
CONTINUOUS
  62
7
 10
1862.4
 20
944.07
 11
1871.15
 21
944.07
  0
LINE
  8
1
  6
CONTINUOUS
  62
7
 10
1862.4
 20
744.07
 11
1871.15
 21
744.07
  0
LINE
  8
1
  6
CONTINUOUS
  62
7
 10
1876.15
 20
939.07
 11
1876.15
 21
749.07
  0
LINE
  8
1
  6
CONTINUOUS
  62
7
 10
1591.21
 20
808.888
 11
1591.21
 21
800.138
  0
LINE
  8
1
  6
CONTINUOUS
  62
7
 10
1941.21
 20
808.888
 11
1941.21
 21
800.138
  0
LINE
  8
1
  6
CONTINUOUS
  62
7
 10
1596.21
 20
795.138
 11
1936.21
 21
795.138
  0
LINE
  8
1
  6
CONTINUOUS
  62
7
 10
1938.71
 20
795.138
 11
1936.21
 21
795.138
  0
LINE
  8
1
  6
CONTINUOUS
  62
7
 10
1593.71
 20
795.138
 11
1596.21
 21
795.138
  0
LINE
  8
1
  6
CONTINUOUS
  62
7
 10
1876.15
 20
746.57
 11
1876.15
 21
749.07
  0
LINE
  8
1
  6
CONTINUOUS
  62
7
 10
1876.15
 20
941.57
 11
1876.15
 21
939.07
  0
LINE
  8
1
  6
CONTINUOUS
  62
7
 10
1717.77
 20
463.961
 11
1717.77
 21
514.961
  0
LINE
  8
1
  6
CONTINUOUS
  62
7
 10
1349.77
 20
514.961
 11
1349.77
 21
463.961
  0
LINE
  8
1
  6
CONTINUOUS
  62
7
 10
1738.77
 20
514.961
 11
1732.77
 21
518.961
  0
LINE
  8
1
  6
CONTINUOUS
  62
7
 10
1328.77
 20
514.961
 11
1334.77
 21
518.961
  0
LINE
  8
1
  6
CONTINUOUS
  62
7
 10
1738.77
 20
514.961
 11
1328.77
 21
514.961
  0
LINE
  8
1
  6
CONTINUOUS
  62
7
 10
1732.77
 20
518.961
 11
1334.77
 21
518.961
  0
LINE
  8
1
  6
CONTINUOUS
  62
7
 10
1381.27
 20
368.961
 11
1686.27
 21
368.961
  0
LINE
  8
1
  6
CONTINUOUS
  62
7
 10
1381.27
 20
368.961
 11
1349.77
 21
463.961
  0
LINE
  8
1
  6
CONTINUOUS
  62
7
 10
1686.27
 20
368.961
 11
1717.77
 21
463.961
  0
LINE
  8
1
  6
CONTINUOUS
  62
7
 10
1393.77
 20
462.461
 11
1393.77
 21
435.461
  0
LINE
  8
1
  6
CONTINUOUS
  62
7
 10
1390.77
 20
462.461
 11
1390.77
 21
435.461
  0
LINE
  8
1
  6
CONTINUOUS
  62
7
 10
1397.77
 20
462.461
 11
1397.77
 21
435.461
  0
LINE
  8
1
  6
CONTINUOUS
  62
7
 10
1400.77
 20
462.461
 11
1400.77
 21
435.461
  0
LINE
  8
1
  6
CONTINUOUS
  62
7
 10
1411.77
 20
462.461
 11
1411.77
 21
435.461
  0
LINE
  8
1
  6
CONTINUOUS
  62
7
 10
1404.77
 20
462.461
 11
1404.77
 21
435.461
  0
LINE
  8
1
  6
CONTINUOUS
  62
7
 10
1407.77
 20
462.461
 11
1407.77
 21
435.461
  0
LINE
  8
1
  6
CONTINUOUS
  62
7
 10
1386.77
 20
462.461
 11
1386.77
 21
435.461
  0
LINE
  8
1
  6
CONTINUOUS
  62
7
 10
1383.77
 20
462.461
 11
1383.77
 21
435.461
  0
LINE
  8
1
  6
CONTINUOUS
  62
7
 10
1379.77
 20
462.461
 11
1379.77
 21
435.461
  0
LINE
  8
1
  6
CONTINUOUS
  62
7
 10
1376.77
 20
462.461
 11
1376.77
 21
435.461
  0
LINE
  8
1
  6
CONTINUOUS
  62
7
 10
1369.77
 20
462.461
 11
1369.77
 21
435.461
  0
LINE
  8
1
  6
CONTINUOUS
  62
7
 10
1372.77
 20
462.461
 11
1372.77
 21
435.461
  0
LINE
  8
1
  6
CONTINUOUS
  62
7
 10
1383.77
 20
422.461
 11
1383.77
 21
395.461
  0
LINE
  8
1
  6
CONTINUOUS
  62
7
 10
1386.77
 20
422.461
 11
1386.77
 21
395.461
  0
LINE
  8
1
  6
CONTINUOUS
  62
7
 10
1407.77
 20
422.461
 11
1407.77
 21
419.848
  0
LINE
  8
1
  6
CONTINUOUS
  62
7
 10
1404.77
 20
422.461
 11
1404.77
 21
419.848
  0
LINE
  8
1
  6
CONTINUOUS
  62
7
 10
1411.77
 20
422.461
 11
1411.77
 21
419.848
  0
LINE
  8
1
  6
CONTINUOUS
  62
7
 10
1400.77
 20
422.461
 11
1400.77
 21
395.461
  0
LINE
  8
1
  6
CONTINUOUS
  62
7
 10
1397.77
 20
422.461
 11
1397.77
 21
395.461
  0
LINE
  8
1
  6
CONTINUOUS
  62
7
 10
1390.77
 20
422.461
 11
1390.77
 21
395.461
  0
LINE
  8
1
  6
CONTINUOUS
  62
7
 10
1393.77
 20
422.461
 11
1393.77
 21
395.461
  0
LINE
  8
1
  6
CONTINUOUS
  62
7
 10
1673.77
 20
422.461
 11
1673.77
 21
395.461
  0
LINE
  8
1
  6
CONTINUOUS
  62
7
 10
1676.77
 20
422.461
 11
1676.77
 21
395.461
  0
LINE
  8
1
  6
CONTINUOUS
  62
7
 10
1669.77
 20
422.461
 11
1669.77
 21
395.461
  0
LINE
  8
1
  6
CONTINUOUS
  62
7
 10
1666.77
 20
422.461
 11
1666.77
 21
395.461
  0
LINE
  8
1
  6
CONTINUOUS
  62
7
 10
1655.77
 20
422.461
 11
1655.77
 21
395.461
  0
LINE
  8
1
  6
CONTINUOUS
  62
7
 10
1662.77
 20
422.461
 11
1662.77
 21
395.461
  0
LINE
  8
1
  6
CONTINUOUS
  62
7
 10
1659.77
 20
422.461
 11
1659.77
 21
395.461
  0
LINE
  8
1
  6
CONTINUOUS
  62
7
 10
1680.77
 20
422.461
 11
1680.77
 21
395.461
  0
LINE
  8
1
  6
CONTINUOUS
  62
7
 10
1683.77
 20
422.461
 11
1683.77
 21
395.461
  0
LINE
  8
1
  6
CONTINUOUS
  62
7
 10
1694.77
 20
462.461
 11
1694.77
 21
435.461
  0
LINE
  8
1
  6
CONTINUOUS
  62
7
 10
1697.77
 20
462.461
 11
1697.77
 21
435.461
  0
LINE
  8
1
  6
CONTINUOUS
  62
7
 10
1690.77
 20
462.461
 11
1690.77
 21
435.461
  0
LINE
  8
1
  6
CONTINUOUS
  62
7
 10
1687.77
 20
462.461
 11
1687.77
 21
435.461
  0
LINE
  8
1
  6
CONTINUOUS
  62
7
 10
1683.77
 20
462.461
 11
1683.77
 21
435.461
  0
LINE
  8
1
  6
CONTINUOUS
  62
7
 10
1680.77
 20
462.461
 11
1680.77
 21
435.461
  0
LINE
  8
1
  6
CONTINUOUS
  62
7
 10
1659.77
 20
462.461
 11
1659.77
 21
435.461
  0
LINE
  8
1
  6
CONTINUOUS
  62
7
 10
1662.77
 20
462.461
 11
1662.77
 21
435.461
  0
LINE
  8
1
  6
CONTINUOUS
  62
7
 10
1655.77
 20
462.461
 11
1655.77
 21
435.461
  0
LINE
  8
1
  6
CONTINUOUS
  62
7
 10
1666.77
 20
462.461
 11
1666.77
 21
435.461
  0
LINE
  8
1
  6
CONTINUOUS
  62
7
 10
1669.77
 20
462.461
 11
1669.77
 21
435.461
  0
LINE
  8
1
  6
CONTINUOUS
  62
7
 10
1676.77
 20
462.461
 11
1676.77
 21
435.461
  0
LINE
  8
1
  6
CONTINUOUS
  62
7
 10
1673.77
 20
462.461
 11
1673.77
 21
435.461
  0
LINE
  8
1
  6
CONTINUOUS
  62
7
 10
1357.04
 20
442.048
 11
1356.75
 21
441.954
  0
LINE
  8
1
  6
CONTINUOUS
  62
7
 10
1354.42
 20
446.764
 11
1355.87
 21
442.398
  0
LINE
  8
1
  6
CONTINUOUS
  62
7
 10
1355.15
 20
447.743
 11
1354.86
 21
447.649
  0
LINE
  8
1
  6
CONTINUOUS
  62
7
 10
1357.04
 20
442.048
 11
1355.15
 21
447.743
  0
LINE
  8
1
  6
CONTINUOUS
  62
7
 10
1375.92
 20
385.097
 11
1374.03
 21
390.792
  0
LINE
  8
1
  6
CONTINUOUS
  62
7
 10
1374.03
 20
390.792
 11
1373.75
 21
390.698
  0
LINE
  8
1
  6
CONTINUOUS
  62
7
 10
1373.3
 20
389.813
 11
1374.75
 21
385.447
  0
LINE
  8
1
  6
CONTINUOUS
  62
7
 10
1375.92
 20
385.097
 11
1375.63
 21
385.003
  0
LINE
  8
1
  6
CONTINUOUS
  62
7
 10
1691.62
 20
385.097
 11
1691.9
 21
385.003
  0
LINE
  8
1
  6
CONTINUOUS
  62
7
 10
1694.24
 20
389.813
 11
1692.79
 21
385.447
  0
LINE
  8
1
  6
CONTINUOUS
  62
7
 10
1693.51
 20
390.792
 11
1693.79
 21
390.698
  0
LINE
  8
1
  6
CONTINUOUS
  62
7
 10
1691.62
 20
385.097
 11
1693.51
 21
390.792
  0
LINE
  8
1
  6
CONTINUOUS
  62
7
 10
1710.5
 20
442.048
 11
1712.39
 21
447.743
  0
LINE
  8
1
  6
CONTINUOUS
  62
7
 10
1712.39
 20
447.743
 11
1712.68
 21
447.649
  0
LINE
  8
1
  6
CONTINUOUS
  62
7
 10
1713.12
 20
446.764
 11
1711.67
 21
442.398
  0
LINE
  8
1
  6
CONTINUOUS
  62
7
 10
1710.5
 20
442.048
 11
1710.79
 21
441.954
  0
LINE
  8
1
  6
CONTINUOUS
  62
7
 10
1728.77
 20
464.853
 11
1727.97
 21
464.853
  0
LINE
  8
1
  6
CONTINUOUS
  62
7
 10
1728.77
 20
479.613
 11
1728.77
 21
464.853
  0
LINE
  8
1
  6
CONTINUOUS
  62
7
 10
1727.97
 20
479.613
 11
1727.97
 21
464.853
  0
LINE
  8
1
  6
CONTINUOUS
  62
7
 10
1728.4
 20
500.941
 11
1717.77
 21
473.961
  0
LINE
  8
1
  6
CONTINUOUS
  62
7
 10
1719.47
 20
505.538
 11
1727.84
 21
502.238
  0
LINE
  8
1
  6
CONTINUOUS
  62
7
 10
1719.1
 20
504.608
 11
1719.47
 21
505.538
  0
LINE
  8
1
  6
CONTINUOUS
  62
7
 10
1727.47
 20
501.308
 11
1717.77
 21
476.688
  0
LINE
  8
1
  6
CONTINUOUS
  62
7
 10
1719.1
 20
504.608
 11
1727.47
 21
501.308
  0
LINE
  8
1
  6
CONTINUOUS
  62
7
 10
1718.57
 20
495.324
 11
1722.67
 21
489.111
  0
LINE
  8
1
  6
CONTINUOUS
  62
7
 10
1718.57
 20
510.324
 11
1718.57
 21
495.324
  0
LINE
  8
1
  6
CONTINUOUS
  62
7
 10
1722.07
 20
514.961
 11
1718
 21
510.89
  0
LINE
  8
1
  6
CONTINUOUS
  62
7
 10
1717.77
 20
510.324
 11
1717.77
 21
495.324
  0
LINE
  8
1
  6
CONTINUOUS
  62
7
 10
1723.21
 20
514.961
 11
1718.57
 21
510.324
  0
LINE
  8
1
  6
CONTINUOUS
  62
7
 10
1349.77
 20
473.961
 11
1717.77
 21
473.961
  0
LINE
  8
1
  6
CONTINUOUS
  62
7
 10
1421.27
 20
493.961
 11
1411.27
 21
493.961
  0
LINE
  8
1
  6
CONTINUOUS
  62
7
 10
1416.27
 20
498.961
 11
1416.27
 21
488.961
  0
LINE
  8
1
  6
CONTINUOUS
  62
7
 10
1414.27
 20
494.461
 11
1414.27
 21
493.461
  0
LINE
  8
1
  6
CONTINUOUS
  62
7
 10
1414.27
 20
493.461
 11
1415.77
 21
493.461
  0
LINE
  8
1
  6
CONTINUOUS
  62
7
 10
1418.27
 20
493.461
 11
1418.27
 21
494.461
  0
LINE
  8
1
  6
CONTINUOUS
  62
7
 10
1418.27
 20
494.461
 11
1416.77
 21
494.461
  0
LINE
  8
1
  6
CONTINUOUS
  62
7
 10
1415.77
 20
491.961
 11
1416.77
 21
491.961
  0
LINE
  8
1
  6
CONTINUOUS
  62
7
 10
1416.77
 20
491.961
 11
1416.77
 21
493.461
  0
LINE
  8
1
  6
CONTINUOUS
  62
7
 10
1416.77
 20
495.961
 11
1415.77
 21
495.961
  0
LINE
  8
1
  6
CONTINUOUS
  62
7
 10
1415.77
 20
495.961
 11
1415.77
 21
494.461
  0
LINE
  8
1
  6
CONTINUOUS
  62
7
 10
1415.77
 20
493.461
 11
1415.77
 21
491.961
  0
LINE
  8
1
  6
CONTINUOUS
  62
7
 10
1415.77
 20
494.461
 11
1414.27
 21
494.461
  0
LINE
  8
1
  6
CONTINUOUS
  62
7
 10
1416.77
 20
494.461
 11
1416.77
 21
495.961
  0
LINE
  8
1
  6
CONTINUOUS
  62
7
 10
1416.77
 20
493.461
 11
1418.27
 21
493.461
  0
LINE
  8
1
  6
CONTINUOUS
  62
7
 10
1650.77
 20
493.461
 11
1649.27
 21
493.461
  0
LINE
  8
1
  6
CONTINUOUS
  62
7
 10
1650.77
 20
494.461
 11
1650.77
 21
495.961
  0
LINE
  8
1
  6
CONTINUOUS
  62
7
 10
1651.77
 20
494.461
 11
1653.27
 21
494.461
  0
LINE
  8
1
  6
CONTINUOUS
  62
7
 10
1651.77
 20
493.461
 11
1651.77
 21
491.961
  0
LINE
  8
1
  6
CONTINUOUS
  62
7
 10
1651.77
 20
495.961
 11
1651.77
 21
494.461
  0
LINE
  8
1
  6
CONTINUOUS
  62
7
 10
1650.77
 20
495.961
 11
1651.77
 21
495.961
  0
LINE
  8
1
  6
CONTINUOUS
  62
7
 10
1650.77
 20
491.961
 11
1650.77
 21
493.461
  0
LINE
  8
1
  6
CONTINUOUS
  62
7
 10
1651.77
 20
491.961
 11
1650.77
 21
491.961
  0
LINE
  8
1
  6
CONTINUOUS
  62
7
 10
1649.27
 20
494.461
 11
1650.77
 21
494.461
  0
LINE
  8
1
  6
CONTINUOUS
  62
7
 10
1649.27
 20
493.461
 11
1649.27
 21
494.461
  0
LINE
  8
1
  6
CONTINUOUS
  62
7
 10
1653.27
 20
493.461
 11
1651.77
 21
493.461
  0
LINE
  8
1
  6
CONTINUOUS
  62
7
 10
1653.27
 20
494.461
 11
1653.27
 21
493.461
  0
LINE
  8
1
  6
CONTINUOUS
  62
7
 10
1651.27
 20
498.961
 11
1651.27
 21
488.961
  0
LINE
  8
1
  6
CONTINUOUS
  62
7
 10
1646.27
 20
493.961
 11
1656.27
 21
493.961
  0
LINE
  8
1
  6
CONTINUOUS
  62
7
 10
1580.77
 20
433.961
 11
1578.77
 21
443.961
  0
LINE
  8
1
  6
CONTINUOUS
  62
7
 10
1576.77
 20
433.961
 11
1580.77
 21
433.961
  0
LINE
  8
1
  6
CONTINUOUS
  62
7
 10
1578.77
 20
443.961
 11
1576.77
 21
433.961
  0
LINE
  8
1
  6
CONTINUOUS
  62
7
 10
1585.96
 20
446.658
 11
1585.96
 21
408.264
  0
LINE
  8
1
  6
CONTINUOUS
  62
7
 10
1571.58
 20
446.658
 11
1571.58
 21
408.264
  0
LINE
  8
1
  6
CONTINUOUS
  62
7
 10
1573.77
 20
409.131
 11
1572.44
 21
408.341
  0
LINE
  8
1
  6
CONTINUOUS
  62
7
 10
1583.77
 20
409.131
 11
1585.1
 21
408.341
  0
LINE
  8
1
  6
CONTINUOUS
  62
7
 10
1583.77
 20
445.791
 11
1585.1
 21
446.582
  0
LINE
  8
1
  6
CONTINUOUS
  62
7
 10
1573.77
 20
445.791
 11
1572.44
 21
446.582
  0
LINE
  8
1
  6
CONTINUOUS
  62
7
 10
1573.77
 20
445.791
 11
1573.77
 21
409.131
  0
LINE
  8
1
  6
CONTINUOUS
  62
7
 10
1583.77
 20
409.131
 11
1583.77
 21
445.791
  0
LINE
  8
1
  6
CENTER
  62
7
 10
1546.27
 20
427.461
 11
1611.27
 21
427.461
  0
LINE
  8
1
  6
CENTER
  62
7
 10
1578.77
 20
459.961
 11
1578.77
 21
394.961
  0
LINE
  8
1
  6
CENTER
  62
7
 10
1493.77
 20
375.961
 11
1493.77
 21
410.961
  0
LINE
  8
1
  6
CONTINUOUS
  62
7
 10
1653.77
 20
369.961
 11
1653.77
 21
459.961
  0
LINE
  8
1
  6
CONTINUOUS
  62
7
 10
1413.77
 20
459.961
 11
1653.77
 21
459.961
  0
LINE
  8
1
  6
CONTINUOUS
  62
7
 10
1413.77
 20
369.961
 11
1653.77
 21
369.961
  0
LINE
  8
1
  6
CONTINUOUS
  62
7
 10
1413.77
 20
369.961
 11
1413.77
 21
459.961
  0
LINE
  8
1
  6
CENTER
  62
7
 10
1476.27
 20
393.461
 11
1511.27
 21
393.461
  0
LINE
  8
1
  6
CONTINUOUS
  62
7
 10
1574.77
 20
356.961
 11
1573.27
 21
361.961
  0
LINE
  8
1
  6
CONTINUOUS
  62
7
 10
1582.77
 20
356.961
 11
1574.77
 21
356.961
  0
LINE
  8
1
  6
CONTINUOUS
  62
7
 10
1584.27
 20
361.961
 11
1582.77
 21
356.961
  0
LINE
  8
1
  6
CONTINUOUS
  62
7
 10
1573.27
 20
361.961
 11
1584.27
 21
361.961
  0
LINE
  8
1
  6
CONTINUOUS
  62
7
 10
1574.27
 20
367.961
 11
1583.27
 21
367.961
  0
LINE
  8
1
  6
CENTER
  62
7
 10
1578.77
 20
369.961
 11
1578.77
 21
346.961
  0
LINE
  8
1
  6
CONTINUOUS
  62
7
 10
1546.77
 20
458.961
 11
1610.77
 21
458.961
  0
LINE
  8
1
  6
CONTINUOUS
  62
7
 10
1610.77
 20
458.961
 11
1610.77
 21
394.961
  0
LINE
  8
1
  6
CONTINUOUS
  62
7
 10
1610.77
 20
394.961
 11
1546.77
 21
394.961
  0
LINE
  8
1
  6
CONTINUOUS
  62
7
 10
1546.77
 20
394.961
 11
1546.77
 21
458.961
  0
LINE
  8
1
  6
CONTINUOUS
  62
7
 10
1717.9
 20
494.884
 11
1722.31
 21
488.202
  0
LINE
  8
1
  6
CONTINUOUS
  62
7
 10
1723.34
 20
488.091
 11
1728.64
 21
480.054
  0
LINE
  8
1
  6
CONTINUOUS
  62
7
 10
1722.98
 20
487.181
 11
1727.97
 21
479.613
  0
LINE
  8
1
  6
CONTINUOUS
  62
7
 10
1339.57
 20
479.613
 11
1339.57
 21
464.853
  0
LINE
  8
1
  6
CONTINUOUS
  62
7
 10
1338.77
 20
479.613
 11
1338.77
 21
464.853
  0
LINE
  8
1
  6
CONTINUOUS
  62
7
 10
1338.77
 20
464.853
 11
1339.57
 21
464.853
  0
LINE
  8
1
  6
CONTINUOUS
  62
7
 10
1344.56
 20
487.181
 11
1339.57
 21
479.613
  0
LINE
  8
1
  6
CONTINUOUS
  62
7
 10
1344.2
 20
488.091
 11
1338.9
 21
480.054
  0
LINE
  8
1
  6
CONTINUOUS
  62
7
 10
1349.64
 20
494.884
 11
1345.23
 21
488.202
  0
LINE
  8
1
  6
CONTINUOUS
  62
7
 10
1344.33
 20
514.961
 11
1348.97
 21
510.324
  0
LINE
  8
1
  6
CONTINUOUS
  62
7
 10
1349.77
 20
510.324
 11
1349.77
 21
495.324
  0
LINE
  8
1
  6
CONTINUOUS
  62
7
 10
1345.46
 20
514.961
 11
1349.54
 21
510.89
  0
LINE
  8
1
  6
CONTINUOUS
  62
7
 10
1348.97
 20
510.324
 11
1348.97
 21
495.324
  0
LINE
  8
1
  6
CONTINUOUS
  62
7
 10
1348.97
 20
495.324
 11
1344.87
 21
489.111
  0
LINE
  8
1
  6
CONTINUOUS
  62
7
 10
1348.44
 20
504.608
 11
1340.07
 21
501.308
  0
LINE
  8
1
  6
CONTINUOUS
  62
7
 10
1340.07
 20
501.308
 11
1349.77
 21
476.688
  0
LINE
  8
1
  6
CONTINUOUS
  62
7
 10
1348.44
 20
504.608
 11
1348.07
 21
505.538
  0
LINE
  8
1
  6
CONTINUOUS
  62
7
 10
1348.07
 20
505.538
 11
1339.7
 21
502.238
  0
LINE
  8
1
  6
CONTINUOUS
  62
7
 10
1339.14
 20
500.941
 11
1349.77
 21
473.961
  0
LINE
  8
1
  6
CONTINUOUS
  62
7
 10
1582.44
 20
352.918
 11
1716.06
 21
219.293
  0
LINE
  8
1
  6
CONTINUOUS
  62
7
 10
1716.06
 20
219.293
 11
1899.9
 21
219.293
  0
LINE
  8
1
  6
CONTINUOUS
  62
7
 10
1413.77
 20
419.848
 11
1404.77
 21
419.848
  0
LINE
  8
1
  6
CONTINUOUS
  62
7
 10
1413.77
 20
419.848
 11
1413.77
 21
386.848
  0
LINE
  8
1
  6
CONTINUOUS
  62
7
 10
1403.77
 20
418.848
 11
1403.77
 21
387.848
  0
LINE
  8
1
  6
CONTINUOUS
  62
7
 10
1404.77
 20
386.848
 11
1413.77
 21
386.848
  0
LINE
  8
1
  6
CENTER
  62
7
 10
1396.39
 20
403.348
 11
1424.63
 21
403.348
  0
LINE
  8
1
  6
CONTINUOUS
  62
7
 10
1360.84
 20
446.469
 11
1351.35
 21
443.322
  0
LINE
  8
1
  6
CONTINUOUS
  62
7
 10
1379.72
 20
389.518
 11
1370.23
 21
386.371
  0
LINE
  8
1
  6
CONTINUOUS
  62
7
 10
1706.7
 20
446.469
 11
1716.19
 21
443.322
  0
LINE
  8
1
  6
CONTINUOUS
  62
7
 10
1687.82
 20
389.518
 11
1697.31
 21
386.371
  0
LINE
  8
1
  6
CONTINUOUS
  62
7
 10
1585.27
 20
461.461
 11
1585.27
 21
459.961
  0
LINE
  8
1
  6
CONTINUOUS
  62
7
 10
1572.27
 20
461.461
 11
1572.27
 21
459.961
  0
LINE
  8
1
  6
CONTINUOUS
  62
7
 10
1585.9
 20
459.961
 11
1586.77
 21
461.461
  0
LINE
  8
1
  6
CONTINUOUS
  62
7
 10
1570.77
 20
461.461
 11
1571.64
 21
459.961
  0
LINE
  8
1
  6
CONTINUOUS
  62
7
 10
1574.77
 20
468.389
 11
1570.77
 21
461.461
  0
LINE
  8
1
  6
CONTINUOUS
  62
7
 10
1582.77
 20
468.389
 11
1574.77
 21
468.389
  0
LINE
  8
1
  6
CONTINUOUS
  62
7
 10
1586.77
 20
461.461
 11
1582.77
 21
468.389
  0
LINE
  8
1
  6
CONTINUOUS
  62
7
 10
1652.77
 20
462.461
 11
1652.77
 21
459.961
  0
LINE
  8
1
  6
CONTINUOUS
  62
7
 10
1414.77
 20
462.461
 11
1414.77
 21
459.961
  0
LINE
  8
1
  6
CONTINUOUS
  62
7
 10
1397.16
 20
377.278
 11
1563.63
 21
210.814
  0
LINE
  8
1
  6
CONTINUOUS
  62
7
 10
1563.63
 20
210.814
 11
1573.63
 21
210.814
  0
LINE
  8
1
  6
CONTINUOUS
  62
7
 10
1573.63
 20
210.814
 11
1666.13
 21
210.814
  0
LINE
  8
1
  6
CONTINUOUS
  62
7
 10
1604.37
 20
459.703
 11
1735.88
 21
591.214
  0
LINE
  8
1
  6
CONTINUOUS
  62
7
 10
1735.88
 20
591.214
 11
1743.77
 21
591.214
  0
LINE
  8
1
  6
CONTINUOUS
  62
7
 10
1743.77
 20
591.214
 11
1823.77
 21
591.214
  0
LINE
  8
1
  6
CONTINUOUS
  62
7
 10
1732.01
 20
504.844
 11
1762.67
 21
535.501
  0
LINE
  8
1
  6
CONTINUOUS
  62
7
 10
1762.67
 20
535.501
 11
1772.67
 21
535.501
  0
LINE
  8
1
  6
CONTINUOUS
  62
7
 10
1772.67
 20
535.501
 11
1843.5
 21
535.501
  0
LINE
  8
1
  6
CONTINUOUS
  62
7
 10
1732.31
 20
468.698
 11
1765.96
 21
435.044
  0
LINE
  8
1
  6
CONTINUOUS
  62
7
 10
1765.96
 20
435.044
 11
1774.22
 21
435.044
  0
LINE
  8
1
  6
CONTINUOUS
  62
7
 10
1774.22
 20
435.044
 11
1820.88
 21
435.044
  0
LINE
  8
1
  6
CONTINUOUS
  62
7
 10
1604.96
 20
459.114
 11
1600.84
 21
456.167
  0
LINE
  8
1
  6
CONTINUOUS
  62
7
 10
1600.84
 20
456.167
 11
1603.78
 21
460.292
  0
LINE
  8
1
  6
CONTINUOUS
  62
7
 10
1604.96
 20
459.114
 11
1603.78
 21
460.292
  0
LINE
  8
1
  6
CONTINUOUS
  62
7
 10
1732.6
 20
504.254
 11
1728.47
 21
501.308
  0
LINE
  8
1
  6
CONTINUOUS
  62
7
 10
1728.47
 20
501.308
 11
1731.42
 21
505.433
  0
LINE
  8
1
  6
CONTINUOUS
  62
7
 10
1732.6
 20
504.254
 11
1731.42
 21
505.433
  0
LINE
  8
1
  6
CONTINUOUS
  62
7
 10
1731.72
 20
468.108
 11
1728.77
 21
472.233
  0
LINE
  8
1
  6
CONTINUOUS
  62
7
 10
1728.77
 20
472.233
 11
1732.89
 21
469.287
  0
LINE
  8
1
  6
CONTINUOUS
  62
7
 10
1731.72
 20
468.108
 11
1732.89
 21
469.287
  0
LINE
  8
1
  6
CONTINUOUS
  62
7
 10
1396.57
 20
376.689
 11
1393.63
 21
380.814
  0
LINE
  8
1
  6
CONTINUOUS
  62
7
 10
1393.63
 20
380.814
 11
1397.75
 21
377.867
  0
LINE
  8
1
  6
CONTINUOUS
  62
7
 10
1396.57
 20
376.689
 11
1397.75
 21
377.867
  0
LINE
  8
1
  6
CONTINUOUS
  62
7
 10
1386.27
 20
373.961
 11
1401.27
 21
373.961
  0
LINE
  8
1
  6
CONTINUOUS
  62
7
 10
1401.27
 20
373.961
 11
1401.27
 21
388.961
  0
LINE
  8
1
  6
CONTINUOUS
  62
7
 10
1401.27
 20
388.961
 11
1386.27
 21
388.961
  0
LINE
  8
1
  6
CONTINUOUS
  62
7
 10
1386.27
 20
388.961
 11
1386.27
 21
373.961
  0
LINE
  8
1
  6
CONTINUOUS
  62
7
 10
1581.85
 20
352.329
 11
1578.9
 21
356.453
  0
LINE
  8
1
  6
CONTINUOUS
  62
7
 10
1578.9
 20
356.453
 11
1583.03
 21
353.507
  0
LINE
  8
1
  6
CONTINUOUS
  62
7
 10
1581.85
 20
352.329
 11
1583.03
 21
353.507
  0
LINE
  8
1
  6
CONTINUOUS
  62
7
 10
1349.77
 20
450.211
 11
1349.77
 21
271.902
  0
LINE
  8
1
  6
CONTINUOUS
  62
7
 10
1338.77
 20
451.103
 11
1338.77
 21
271.902
  0
LINE
  8
1
  6
CONTINUOUS
  62
7
 10
1354.77
 20
276.902
 11
1359.77
 21
276.902
  0
LINE
  8
1
  6
CONTINUOUS
  62
7
 10
1333.77
 20
276.902
 11
1328.77
 21
276.902
  0
LINE
  8
1
  6
CONTINUOUS
  62
7
 10
1349.77
 20
276.902
 11
1338.77
 21
276.902
  0
LINE
  8
1
  6
CONTINUOUS
  62
7
 10
1338.77
 20
451.103
 11
1338.77
 21
271.902
  0
LINE
  8
1
  6
CONTINUOUS
  62
7
 10
1328.77
 20
501.211
 11
1328.77
 21
271.902
  0
LINE
  8
1
  6
CONTINUOUS
  62
7
 10
1343.77
 20
276.902
 11
1348.77
 21
276.902
  0
LINE
  8
1
  6
CONTINUOUS
  62
7
 10
1323.77
 20
276.902
 11
1318.77
 21
276.902
  0
LINE
  8
1
  6
CONTINUOUS
  62
7
 10
1338.77
 20
276.902
 11
1328.77
 21
276.902
  0
LINE
  8
1
  6
CONTINUOUS
  62
7
 10
1381.27
 20
355.211
 11
1381.27
 21
308.728
  0
LINE
  8
1
  6
CONTINUOUS
  62
7
 10
1686.27
 20
355.211
 11
1686.27
 21
308.728
  0
LINE
  8
1
  6
CONTINUOUS
  62
7
 10
1386.27
 20
313.728
 11
1681.27
 21
313.728
  0
LINE
  8
1
  6
CONTINUOUS
  62
7
 10
1728.77
 20
451.103
 11
1728.77
 21
271.902
  0
LINE
  8
1
  6
CONTINUOUS
  62
7
 10
1738.77
 20
501.211
 11
1738.77
 21
271.902
  0
LINE
  8
1
  6
CONTINUOUS
  62
7
 10
1723.77
 20
276.902
 11
1718.77
 21
276.902
  0
LINE
  8
1
  6
CONTINUOUS
  62
7
 10
1743.77
 20
276.902
 11
1748.77
 21
276.902
  0
LINE
  8
1
  6
CONTINUOUS
  62
7
 10
1728.77
 20
276.902
 11
1738.77
 21
276.902
  0
LINE
  8
1
  6
CONTINUOUS
  62
7
 10
1717.77
 20
450.211
 11
1717.77
 21
271.902
  0
LINE
  8
1
  6
CONTINUOUS
  62
7
 10
1728.77
 20
451.103
 11
1728.77
 21
271.902
  0
LINE
  8
1
  6
CONTINUOUS
  62
7
 10
1712.77
 20
276.902
 11
1707.77
 21
276.902
  0
LINE
  8
1
  6
CONTINUOUS
  62
7
 10
1733.77
 20
276.902
 11
1738.77
 21
276.902
  0
LINE
  8
1
  6
CONTINUOUS
  62
7
 10
1717.77
 20
276.902
 11
1728.77
 21
276.902
  0
LINE
  8
1
  6
CONTINUOUS
  62
7
 10
1349.77
 20
450.211
 11
1349.77
 21
271.902
  0
LINE
  8
1
  6
CONTINUOUS
  62
7
 10
1717.77
 20
450.211
 11
1717.77
 21
271.902
  0
LINE
  8
1
  6
CONTINUOUS
  62
7
 10
1354.77
 20
276.902
 11
1712.77
 21
276.902
  0
LINE
  8
1
  6
CONTINUOUS
  62
7
 10
1715.27
 20
276.902
 11
1712.77
 21
276.902
  0
LINE
  8
1
  6
CONTINUOUS
  62
7
 10
1352.27
 20
276.902
 11
1354.77
 21
276.902
  0
LINE
  8
1
  6
CONTINUOUS
  62
7
 10
1731.27
 20
276.902
 11
1733.77
 21
276.902
  0
LINE
  8
1
  6
CONTINUOUS
  62
7
 10
1715.27
 20
276.902
 11
1712.77
 21
276.902
  0
LINE
  8
1
  6
CONTINUOUS
  62
7
 10
1741.27
 20
276.902
 11
1743.77
 21
276.902
  0
LINE
  8
1
  6
CONTINUOUS
  62
7
 10
1726.27
 20
276.902
 11
1723.77
 21
276.902
  0
LINE
  8
1
  6
CONTINUOUS
  62
7
 10
1683.77
 20
313.728
 11
1681.27
 21
313.728
  0
LINE
  8
1
  6
CONTINUOUS
  62
7
 10
1383.77
 20
313.728
 11
1386.27
 21
313.728
  0
LINE
  8
1
  6
CONTINUOUS
  62
7
 10
1326.27
 20
276.902
 11
1323.77
 21
276.902
  0
LINE
  8
1
  6
CONTINUOUS
  62
7
 10
1341.27
 20
276.902
 11
1343.77
 21
276.902
  0
LINE
  8
1
  6
CONTINUOUS
  62
7
 10
1336.27
 20
276.902
 11
1333.77
 21
276.902
  0
LINE
  8
1
  6
CONTINUOUS
  62
7
 10
1352.27
 20
276.902
 11
1354.77
 21
276.902
  0
LINE
  8
1
  6
CONTINUOUS
  62
7
 10
850.357
 20
276.902
 11
852.857
 21
276.902
  0
LINE
  8
1
  6
CONTINUOUS
  62
7
 10
866.357
 20
276.902
 11
863.857
 21
276.902
  0
LINE
  8
1
  6
CONTINUOUS
  62
7
 10
810.357
 20
276.902
 11
812.857
 21
276.902
  0
LINE
  8
1
  6
CONTINUOUS
  62
7
 10
845.357
 20
276.902
 11
842.857
 21
276.902
  0
LINE
  8
1
  6
CONTINUOUS
  62
7
 10
318.357
 20
276.902
 11
320.857
 21
276.902
  0
LINE
  8
1
  6
CONTINUOUS
  62
7
 10
805.357
 20
276.902
 11
802.857
 21
276.902
  0
LINE
  8
1
  6
CONTINUOUS
  62
7
 10
297.357
 20
276.902
 11
299.857
 21
276.902
  0
LINE
  8
1
  6
CONTINUOUS
  62
7
 10
313.357
 20
276.902
 11
310.857
 21
276.902
  0
LINE
  8
1
  6
CONTINUOUS
  62
7
 10
1087.65
 20
457.461
 11
1087.65
 21
454.961
  0
LINE
  8
1
  6
CONTINUOUS
  62
7
 10
1087.65
 20
372.461
 11
1087.65
 21
374.961
  0
LINE
  8
1
  6
CONTINUOUS
  62
7
 10
1171.95
 20
516.461
 11
1171.95
 21
513.961
  0
LINE
  8
1
  6
CONTINUOUS
  62
7
 10
1171.95
 20
371.461
 11
1171.95
 21
373.961
  0
LINE
  8
1
  6
CONTINUOUS
  62
7
 10
1171.95
 20
513.961
 11
1171.95
 21
373.961
  0
LINE
  8
1
  6
CONTINUOUS
  62
7
 10
821.607
 20
368.961
 11
1176.95
 21
368.961
  0
LINE
  8
1
  6
CONTINUOUS
  62
7
 10
876.607
 20
518.961
 11
1176.95
 21
518.961
  0
LINE
  8
1
  6
CONTINUOUS
  62
7
 10
1087.65
 20
454.961
 11
1087.65
 21
374.961
  0
LINE
  8
1
  6
CONTINUOUS
  62
7
 10
991.607
 20
369.961
 11
1092.65
 21
369.961
  0
LINE
  8
1
  6
CONTINUOUS
  62
7
 10
991.607
 20
459.961
 11
1092.65
 21
459.961
  0
LINE
  8
1
  6
CONTINUOUS
  62
7
 10
299.857
 20
276.902
 11
310.857
 21
276.902
  0
LINE
  8
1
  6
CONTINUOUS
  62
7
 10
315.857
 20
355.211
 11
315.857
 21
271.902
  0
LINE
  8
1
  6
CONTINUOUS
  62
7
 10
294.857
 20
501.211
 11
294.857
 21
271.902
  0
LINE
  8
1
  6
CONTINUOUS
  62
7
 10
320.857
 20
276.902
 11
802.857
 21
276.902
  0
LINE
  8
1
  6
CONTINUOUS
  62
7
 10
807.857
 20
355.211
 11
807.857
 21
271.902
  0
LINE
  8
1
  6
CONTINUOUS
  62
7
 10
315.857
 20
355.211
 11
315.857
 21
271.902
  0
LINE
  8
1
  6
CONTINUOUS
  62
7
 10
812.857
 20
276.902
 11
842.857
 21
276.902
  0
LINE
  8
1
  6
CONTINUOUS
  62
7
 10
847.857
 20
460.211
 11
847.857
 21
271.902
  0
LINE
  8
1
  6
CONTINUOUS
  62
7
 10
807.857
 20
355.211
 11
807.857
 21
271.902
  0
LINE
  8
1
  6
CONTINUOUS
  62
7
 10
852.857
 20
276.902
 11
863.857
 21
276.902
  0
LINE
  8
1
  6
CONTINUOUS
  62
7
 10
868.857
 20
501.211
 11
868.857
 21
271.902
  0
LINE
  8
1
  6
CONTINUOUS
  62
7
 10
847.857
 20
460.211
 11
847.857
 21
271.902
  0
LINE
  8
1
  6
CONTINUOUS
  62
7
 10
1010.98
 20
396.407
 11
1009.8
 21
397.586
  0
LINE
  8
1
  6
CONTINUOUS
  62
7
 10
1006.86
 20
393.461
 11
1009.8
 21
397.586
  0
LINE
  8
1
  6
CONTINUOUS
  62
7
 10
1010.98
 20
396.407
 11
1006.86
 21
393.461
  0
LINE
  8
1
  6
CONTINUOUS
  62
7
 10
553.399
 20
411.597
 11
552.22
 21
412.776
  0
LINE
  8
1
  6
CONTINUOUS
  62
7
 10
549.274
 20
408.651
 11
552.22
 21
412.776
  0
LINE
  8
1
  6
CONTINUOUS
  62
7
 10
553.399
 20
411.597
 11
549.274
 21
408.651
  0
LINE
  8
1
  6
CONTINUOUS
  62
7
 10
655.472
 20
398.199
 11
656.651
 21
399.377
  0
LINE
  8
1
  6
CONTINUOUS
  62
7
 10
652.526
 20
402.324
 11
656.651
 21
399.377
  0
LINE
  8
1
  6
CONTINUOUS
  62
7
 10
655.472
 20
398.199
 11
652.526
 21
402.324
  0
LINE
  8
1
  6
CONTINUOUS
  62
7
 10
760.953
 20
405.032
 11
762.131
 21
406.21
  0
LINE
  8
1
  6
CONTINUOUS
  62
7
 10
758.007
 20
409.157
 11
762.131
 21
406.21
  0
LINE
  8
1
  6
CONTINUOUS
  62
7
 10
760.953
 20
405.032
 11
758.007
 21
409.157
  0
LINE
  8
1
  6
CONTINUOUS
  62
7
 10
899.077
 20
390.737
 11
900.256
 21
391.916
  0
LINE
  8
1
  6
CONTINUOUS
  62
7
 10
896.131
 20
394.862
 11
900.256
 21
391.916
  0
LINE
  8
1
  6
CONTINUOUS
  62
7
 10
899.077
 20
390.737
 11
896.131
 21
394.862
  0
LINE
  8
1
  6
CONTINUOUS
  62
7
 10
881.596
 20
459.452
 11
880.417
 21
460.63
  0
LINE
  8
1
  6
CONTINUOUS
  62
7
 10
877.471
 20
456.505
 11
880.417
 21
460.63
  0
LINE
  8
1
  6
CONTINUOUS
  62
7
 10
881.596
 20
459.452
 11
877.471
 21
456.505
  0
LINE
  8
1
  6
CONTINUOUS
  62
7
 10
1007.99
 20
450.137
 11
1006.81
 21
451.315
  0
LINE
  8
1
  6
CONTINUOUS
  62
7
 10
1003.87
 20
447.191
 11
1006.81
 21
451.315
  0
LINE
  8
1
  6
CONTINUOUS
  62
7
 10
1007.99
 20
450.137
 11
1003.87
 21
447.191
  0
LINE
  8
1
  6
CONTINUOUS
  62
7
 10
1156.6
 20
590.395
 11
1322.44
 21
590.395
  0
LINE
  8
1
  6
CONTINUOUS
  62
7
 10
1147.07
 20
590.395
 11
1156.6
 21
590.395
  0
LINE
  8
1
  6
CONTINUOUS
  62
7
 10
1007.4
 20
450.726
 11
1147.07
 21
590.395
  0
LINE
  8
1
  6
CONTINUOUS
  62
7
 10
1065.74
 20
633.755
 11
1193.87
 21
633.755
  0
LINE
  8
1
  6
CONTINUOUS
  62
7
 10
1054.72
 20
633.755
 11
1065.74
 21
633.755
  0
LINE
  8
1
  6
CONTINUOUS
  62
7
 10
881.006
 20
460.041
 11
1054.72
 21
633.755
  0
LINE
  8
1
  6
CONTINUOUS
  62
7
 10
430.857
 20
374.961
 11
430.857
 21
414.961
  0
LINE
  8
1
  6
CONTINUOUS
  62
7
 10
326.857
 20
414.961
 11
326.857
 21
374.961
  0
LINE
  8
1
  6
CONTINUOUS
  62
7
 10
438.857
 20
414.961
 11
318.857
 21
414.961
  0
LINE
  8
1
  6
CONTINUOUS
  62
7
 10
331.857
 20
369.961
 11
425.857
 21
369.961
  0
LINE
  8
1
  6
CONTINUOUS
  62
7
 10
911.857
 20
461.461
 11
920.857
 21
461.461
  0
LINE
  8
1
  6
CONTINUOUS
  62
7
 10
911.357
 20
459.961
 11
911.357
 21
464.925
  0
LINE
  8
1
  6
CONTINUOUS
  62
7
 10
911.357
 20
463.461
 11
901.357
 21
463.461
  0
LINE
  8
1
  6
CONTINUOUS
  62
7
 10
921.357
 20
459.961
 11
921.357
 21
464.925
  0
LINE
  8
1
  6
CONTINUOUS
  62
7
 10
920.857
 20
468.389
 11
911.857
 21
468.389
  0
LINE
  8
1
  6
CONTINUOUS
  62
7
 10
926.357
 20
465.461
 11
921.357
 21
465.461
  0
LINE
  8
1
  6
CONTINUOUS
  62
7
 10
926.357
 20
467.961
 11
934.357
 21
467.961
  0
LINE
  8
1
  6
CONTINUOUS
  62
7
 10
926.357
 20
459.961
 11
926.357
 21
467.961
  0
LINE
  8
1
  6
CONTINUOUS
  62
7
 10
920.712
 20
246.451
 11
1014.96
 21
246.451
  0
LINE
  8
1
  6
CONTINUOUS
  62
7
 10
761.542
 20
405.621
 11
920.712
 21
246.451
  0
LINE
  8
1
  6
CONTINUOUS
  62
7
 10
997.861
 20
293.133
 11
1093.76
 21
293.133
  0
LINE
  8
1
  6
CONTINUOUS
  62
7
 10
899.667
 20
391.326
 11
997.861
 21
293.133
  0
LINE
  8
1
  6
CONTINUOUS
  62
7
 10
614.857
 20
440.15
 11
614.857
 21
392.691
  0
LINE
  8
1
  6
CONTINUOUS
  62
7
 10
694.857
 20
440.15
 11
614.857
 21
440.15
  0
LINE
  8
1
  6
CONTINUOUS
  62
7
 10
694.857
 20
392.691
 11
694.857
 21
440.15
  0
LINE
  8
1
  6
CONTINUOUS
  62
7
 10
614.857
 20
392.691
 11
694.857
 21
392.691
  0
LINE
  8
1
  6
CONTINUOUS
  62
7
 10
704.857
 20
427.81
 11
704.857
 21
392.691
  0
LINE
  8
1
  6
CONTINUOUS
  62
7
 10
767.857
 20
427.81
 11
704.857
 21
427.81
  0
LINE
  8
1
  6
CONTINUOUS
  62
7
 10
767.857
 20
392.691
 11
767.857
 21
427.81
  0
LINE
  8
1
  6
CONTINUOUS
  62
7
 10
704.857
 20
392.691
 11
767.857
 21
392.691
  0
LINE
  8
1
  6
CONTINUOUS
  62
7
 10
848.796
 20
206.054
 11
961.609
 21
206.054
  0
LINE
  8
1
  6
CONTINUOUS
  62
7
 10
656.062
 20
398.788
 11
848.796
 21
206.054
  0
LINE
  8
1
  6
CONTINUOUS
  62
7
 10
725.355
 20
584.731
 11
911.484
 21
584.731
  0
LINE
  8
1
  6
CONTINUOUS
  62
7
 10
552.81
 20
412.186
 11
725.355
 21
584.731
  0
LINE
  8
1
  6
CONTINUOUS
  62
7
 10
1169.54
 20
556.146
 11
1282.66
 21
556.146
  0
LINE
  8
1
  6
CONTINUOUS
  62
7
 10
1010.39
 20
396.997
 11
1169.54
 21
556.146
  0
LINE
  8
1
  6
CONTINUOUS
  62
7
 10
365.857
 20
490.961
 11
361.857
 21
490.961
  0
LINE
  8
1
  6
CONTINUOUS
  62
7
 10
365.857
 20
496.961
 11
367.857
 21
496.961
  0
LINE
  8
1
  6
CONTINUOUS
  62
7
 10
350.857
 20
490.961
 11
347.857
 21
490.961
  0
LINE
  8
1
  6
CONTINUOUS
  62
7
 10
350.857
 20
496.961
 11
353.857
 21
496.961
  0
LINE
  8
1
  6
CONTINUOUS
  62
7
 10
335.857
 20
490.961
 11
333.857
 21
490.961
  0
LINE
  8
1
  6
CONTINUOUS
  62
7
 10
335.857
 20
496.961
 11
339.857
 21
496.961
  0
LINE
  8
1
  6
CONTINUOUS
  62
7
 10
782.857
 20
490.961
 11
787.857
 21
490.961
  0
LINE
  8
1
  6
CONTINUOUS
  62
7
 10
782.857
 20
496.961
 11
781.857
 21
496.961
  0
LINE
  8
1
  6
CONTINUOUS
  62
7
 10
797.857
 20
490.961
 11
801.857
 21
490.961
  0
LINE
  8
1
  6
CONTINUOUS
  62
7
 10
797.857
 20
496.961
 11
795.857
 21
496.961
  0
LINE
  8
1
  6
CONTINUOUS
  62
7
 10
827.857
 20
496.961
 11
823.857
 21
496.961
  0
LINE
  8
1
  6
CONTINUOUS
  62
7
 10
797.857
 20
478.961
 11
807.857
 21
478.961
  0
LINE
  8
1
  6
CONTINUOUS
  62
7
 10
782.857
 20
505.538
 11
782.857
 21
473.961
  0
LINE
  8
1
  6
CONTINUOUS
  62
7
 10
797.857
 20
505.538
 11
782.857
 21
505.538
  0
LINE
  8
1
  6
CONTINUOUS
  62
7
 10
797.857
 20
473.961
 11
797.857
 21
505.538
  0
LINE
  8
1
  6
CONTINUOUS
  62
7
 10
782.857
 20
501.707
 11
797.857
 21
501.707
  0
LINE
  8
1
  6
CONTINUOUS
  62
7
 10
365.857
 20
478.961
 11
369.857
 21
478.961
  0
LINE
  8
1
  6
CONTINUOUS
  62
7
 10
350.857
 20
505.538
 11
350.857
 21
473.961
  0
LINE
  8
1
  6
CONTINUOUS
  62
7
 10
365.857
 20
505.538
 11
350.857
 21
505.538
  0
LINE
  8
1
  6
CONTINUOUS
  62
7
 10
365.857
 20
473.961
 11
365.857
 21
505.538
  0
LINE
  8
1
  6
CONTINUOUS
  62
7
 10
350.857
 20
501.707
 11
365.857
 21
501.707
  0
LINE
  8
1
  6
CONTINUOUS
  62
7
 10
779.857
 20
473.961
 11
787.857
 21
473.961
  0
LINE
  8
1
  6
CONTINUOUS
  62
7
 10
779.857
 20
478.961
 11
782.857
 21
478.961
  0
LINE
  8
1
  6
CONTINUOUS
  62
7
 10
335.857
 20
473.961
 11
369.857
 21
473.961
  0
LINE
  8
1
  6
CONTINUOUS
  62
7
 10
335.857
 20
478.961
 11
350.857
 21
478.961
  0
LINE
  8
1
  6
CONTINUOUS
  62
7
 10
591.857
 20
496.961
 11
585.857
 21
496.961
  0
LINE
  8
1
  6
CONTINUOUS
  62
7
 10
585.857
 20
490.961
 11
591.857
 21
490.961
  0
LINE
  8
1
  6
CONTINUOUS
  62
7
 10
599.857
 20
490.961
 11
605.857
 21
490.961
  0
LINE
  8
1
  6
CONTINUOUS
  62
7
 10
605.857
 20
496.961
 11
599.857
 21
496.961
  0
LINE
  8
1
  6
CONTINUOUS
  62
7
 10
633.857
 20
496.961
 11
627.857
 21
496.961
  0
LINE
  8
1
  6
CONTINUOUS
  62
7
 10
627.857
 20
490.961
 11
633.857
 21
490.961
  0
LINE
  8
1
  6
CONTINUOUS
  62
7
 10
613.857
 20
490.961
 11
619.857
 21
490.961
  0
LINE
  8
1
  6
CONTINUOUS
  62
7
 10
619.857
 20
496.961
 11
613.857
 21
496.961
  0
LINE
  8
1
  6
CONTINUOUS
  62
7
 10
675.857
 20
496.961
 11
669.857
 21
496.961
  0
LINE
  8
1
  6
CONTINUOUS
  62
7
 10
669.857
 20
490.961
 11
675.857
 21
490.961
  0
LINE
  8
1
  6
CONTINUOUS
  62
7
 10
683.857
 20
490.961
 11
689.857
 21
490.961
  0
LINE
  8
1
  6
CONTINUOUS
  62
7
 10
689.857
 20
496.961
 11
683.857
 21
496.961
  0
LINE
  8
1
  6
CONTINUOUS
  62
7
 10
661.857
 20
496.961
 11
655.857
 21
496.961
  0
LINE
  8
1
  6
CONTINUOUS
  62
7
 10
655.857
 20
490.961
 11
661.857
 21
490.961
  0
LINE
  8
1
  6
CONTINUOUS
  62
7
 10
641.857
 20
490.961
 11
647.857
 21
490.961
  0
LINE
  8
1
  6
CONTINUOUS
  62
7
 10
647.857
 20
496.961
 11
641.857
 21
496.961
  0
LINE
  8
1
  6
CONTINUOUS
  62
7
 10
745.857
 20
496.961
 11
739.857
 21
496.961
  0
LINE
  8
1
  6
CONTINUOUS
  62
7
 10
739.857
 20
490.961
 11
745.857
 21
490.961
  0
LINE
  8
1
  6
CONTINUOUS
  62
7
 10
753.857
 20
490.961
 11
759.857
 21
490.961
  0
LINE
  8
1
  6
CONTINUOUS
  62
7
 10
759.857
 20
496.961
 11
753.857
 21
496.961
  0
LINE
  8
1
  6
CONTINUOUS
  62
7
 10
787.857
 20
496.961
 11
782.857
 21
496.961
  0
LINE
  8
1
  6
CONTINUOUS
  62
7
 10
781.857
 20
490.961
 11
782.857
 21
490.961
  0
LINE
  8
1
  6
CONTINUOUS
  62
7
 10
767.857
 20
490.961
 11
773.857
 21
490.961
  0
LINE
  8
1
  6
CONTINUOUS
  62
7
 10
773.857
 20
496.961
 11
767.857
 21
496.961
  0
LINE
  8
1
  6
CONTINUOUS
  62
7
 10
717.857
 20
496.961
 11
711.857
 21
496.961
  0
LINE
  8
1
  6
CONTINUOUS
  62
7
 10
711.857
 20
490.961
 11
717.857
 21
490.961
  0
LINE
  8
1
  6
CONTINUOUS
  62
7
 10
725.857
 20
490.961
 11
731.857
 21
490.961
  0
LINE
  8
1
  6
CONTINUOUS
  62
7
 10
731.857
 20
496.961
 11
725.857
 21
496.961
  0
LINE
  8
1
  6
CONTINUOUS
  62
7
 10
703.857
 20
496.961
 11
697.857
 21
496.961
  0
LINE
  8
1
  6
CONTINUOUS
  62
7
 10
697.857
 20
490.961
 11
703.857
 21
490.961
  0
LINE
  8
1
  6
CONTINUOUS
  62
7
 10
815.857
 20
496.961
 11
809.857
 21
496.961
  0
LINE
  8
1
  6
CONTINUOUS
  62
7
 10
809.857
 20
490.961
 11
815.857
 21
490.961
  0
LINE
  8
1
  6
CONTINUOUS
  62
7
 10
823.857
 20
490.961
 11
829.857
 21
490.961
  0
LINE
  8
1
  6
CONTINUOUS
  62
7
 10
829.857
 20
496.961
 11
827.857
 21
496.961
  0
LINE
  8
1
  6
CONTINUOUS
  62
7
 10
801.857
 20
496.961
 11
797.857
 21
496.961
  0
LINE
  8
1
  6
CONTINUOUS
  62
7
 10
795.857
 20
490.961
 11
797.857
 21
490.961
  0
LINE
  8
1
  6
CONTINUOUS
  62
7
 10
367.857
 20
490.961
 11
365.857
 21
490.961
  0
LINE
  8
1
  6
CONTINUOUS
  62
7
 10
361.857
 20
496.961
 11
365.857
 21
496.961
  0
LINE
  8
1
  6
CONTINUOUS
  62
7
 10
333.857
 20
496.961
 11
335.857
 21
496.961
  0
LINE
  8
1
  6
CONTINUOUS
  62
7
 10
339.857
 20
490.961
 11
335.857
 21
490.961
  0
LINE
  8
1
  6
CONTINUOUS
  62
7
 10
353.857
 20
490.961
 11
350.857
 21
490.961
  0
LINE
  8
1
  6
CONTINUOUS
  62
7
 10
347.857
 20
496.961
 11
350.857
 21
496.961
  0
LINE
  8
1
  6
CONTINUOUS
  62
7
 10
465.857
 20
490.961
 11
459.857
 21
490.961
  0
LINE
  8
1
  6
CONTINUOUS
  62
7
 10
459.857
 20
496.961
 11
465.857
 21
496.961
  0
LINE
  8
1
  6
CONTINUOUS
  62
7
 10
431.857
 20
496.961
 11
437.857
 21
496.961
  0
LINE
  8
1
  6
CONTINUOUS
  62
7
 10
437.857
 20
490.961
 11
431.857
 21
490.961
  0
LINE
  8
1
  6
CONTINUOUS
  62
7
 10
451.857
 20
490.961
 11
445.857
 21
490.961
  0
LINE
  8
1
  6
CONTINUOUS
  62
7
 10
445.857
 20
496.961
 11
451.857
 21
496.961
  0
LINE
  8
1
  6
CONTINUOUS
  62
7
 10
389.857
 20
496.961
 11
395.857
 21
496.961
  0
LINE
  8
1
  6
CONTINUOUS
  62
7
 10
395.857
 20
490.961
 11
389.857
 21
490.961
  0
LINE
  8
1
  6
CONTINUOUS
  62
7
 10
381.857
 20
490.961
 11
375.857
 21
490.961
  0
LINE
  8
1
  6
CONTINUOUS
  62
7
 10
375.857
 20
496.961
 11
381.857
 21
496.961
  0
LINE
  8
1
  6
CONTINUOUS
  62
7
 10
403.857
 20
496.961
 11
409.857
 21
496.961
  0
LINE
  8
1
  6
CONTINUOUS
  62
7
 10
409.857
 20
490.961
 11
403.857
 21
490.961
  0
LINE
  8
1
  6
CONTINUOUS
  62
7
 10
423.857
 20
490.961
 11
417.857
 21
490.961
  0
LINE
  8
1
  6
CONTINUOUS
  62
7
 10
417.857
 20
496.961
 11
423.857
 21
496.961
  0
LINE
  8
1
  6
CONTINUOUS
  62
7
 10
515.857
 20
496.961
 11
521.857
 21
496.961
  0
LINE
  8
1
  6
CONTINUOUS
  62
7
 10
521.857
 20
490.961
 11
515.857
 21
490.961
  0
LINE
  8
1
  6
CONTINUOUS
  62
7
 10
507.857
 20
490.961
 11
501.857
 21
490.961
  0
LINE
  8
1
  6
CONTINUOUS
  62
7
 10
501.857
 20
496.961
 11
507.857
 21
496.961
  0
LINE
  8
1
  6
CONTINUOUS
  62
7
 10
473.857
 20
496.961
 11
479.857
 21
496.961
  0
LINE
  8
1
  6
CONTINUOUS
  62
7
 10
479.857
 20
490.961
 11
473.857
 21
490.961
  0
LINE
  8
1
  6
CONTINUOUS
  62
7
 10
493.857
 20
490.961
 11
487.857
 21
490.961
  0
LINE
  8
1
  6
CONTINUOUS
  62
7
 10
487.857
 20
496.961
 11
493.857
 21
496.961
  0
LINE
  8
1
  6
CONTINUOUS
  62
7
 10
543.857
 20
496.961
 11
549.857
 21
496.961
  0
LINE
  8
1
  6
CONTINUOUS
  62
7
 10
549.857
 20
490.961
 11
543.857
 21
490.961
  0
LINE
  8
1
  6
CONTINUOUS
  62
7
 10
535.857
 20
490.961
 11
529.857
 21
490.961
  0
LINE
  8
1
  6
CONTINUOUS
  62
7
 10
529.857
 20
496.961
 11
535.857
 21
496.961
  0
LINE
  8
1
  6
CONTINUOUS
  62
7
 10
557.857
 20
496.961
 11
563.857
 21
496.961
  0
LINE
  8
1
  6
CONTINUOUS
  62
7
 10
563.857
 20
490.961
 11
557.857
 21
490.961
  0
LINE
  8
1
  6
CONTINUOUS
  62
7
 10
577.857
 20
490.961
 11
571.857
 21
490.961
  0
LINE
  8
1
  6
CONTINUOUS
  62
7
 10
571.857
 20
496.961
 11
577.857
 21
496.961
  0
LINE
  8
1
  6
CONTINUOUS
  62
7
 10
808.057
 20
381.961
 11
807.857
 21
381.961
  0
LINE
  8
1
  6
CONTINUOUS
  62
7
 10
972.857
 20
417.562
 11
982.857
 21
417.562
  0
LINE
  8
1
  6
CONTINUOUS
  62
7
 10
977.857
 20
413.562
 11
978.157
 21
413.562
  0
LINE
  8
1
  6
CONTINUOUS
  62
7
 10
977.857
 20
421.562
 11
978.157
 21
421.562
  0
LINE
  8
1
  6
CONTINUOUS
  62
7
 10
977.857
 20
413.562
 11
977.857
 21
421.562
  0
LINE
  8
1
  6
CONTINUOUS
  62
7
 10
977.857
 20
441.361
 11
977.857
 21
433.361
  0
LINE
  8
1
  6
CONTINUOUS
  62
7
 10
977.857
 20
433.361
 11
978.157
 21
433.361
  0
LINE
  8
1
  6
CONTINUOUS
  62
7
 10
977.857
 20
441.361
 11
978.157
 21
441.361
  0
LINE
  8
1
  6
CONTINUOUS
  62
7
 10
972.857
 20
437.361
 11
982.857
 21
437.361
  0
LINE
  8
1
  6
CENTER
  62
7
 10
977.857
 20
393.461
 11
1014.36
 21
393.461
  0
LINE
  8
1
  6
CONTINUOUS
  62
7
 10
987.857
 20
398.461
 11
987.857
 21
388.461
  0
LINE
  8
1
  6
CONTINUOUS
  62
7
 10
987.857
 20
388.461
 11
988.197
 21
388.461
  0
LINE
  8
1
  6
CONTINUOUS
  62
7
 10
987.857
 20
398.461
 11
988.197
 21
398.461
  0
LINE
  8
1
  6
CONTINUOUS
  62
7
 10
987.857
 20
395.961
 11
977.857
 21
395.961
  0
LINE
  8
1
  6
CONTINUOUS
  62
7
 10
987.857
 20
390.961
 11
977.857
 21
390.961
  0
LINE
  8
1
  6
CONTINUOUS
  62
7
 10
817.857
 20
460.961
 11
817.857
 21
459.961
  0
LINE
  8
1
  6
CONTINUOUS
  62
7
 10
808.657
 20
460.961
 11
817.857
 21
460.961
  0
LINE
  8
1
  6
CONTINUOUS
  62
7
 10
846.857
 20
448.961
 11
846.857
 21
430.961
  0
LINE
  8
1
  6
CONTINUOUS
  62
7
 10
858.857
 20
430.961
 11
858.857
 21
448.961
  0
LINE
  8
1
  6
CONTINUOUS
  62
7
 10
843.857
 20
430.961
 11
843.857
 21
448.961
  0
LINE
  8
1
  6
CONTINUOUS
  62
7
 10
831.857
 20
448.961
 11
831.857
 21
430.961
  0
LINE
  8
1
  6
CONTINUOUS
  62
7
 10
816.857
 20
448.961
 11
816.857
 21
430.961
  0
LINE
  8
1
  6
CONTINUOUS
  62
7
 10
828.857
 20
430.961
 11
828.857
 21
448.961
  0
LINE
  8
1
  6
CONTINUOUS
  62
7
 10
808.857
 20
459.961
 11
808.857
 21
369.961
  0
LINE
  8
1
  6
CONTINUOUS
  62
7
 10
808.857
 20
459.961
 11
977.857
 21
459.961
  0
LINE
  8
1
  6
CONTINUOUS
  62
7
 10
808.857
 20
369.961
 11
977.857
 21
369.961
  0
LINE
  8
1
  6
CONTINUOUS
  62
7
 10
977.857
 20
369.961
 11
977.857
 21
459.961
  0
LINE
  8
1
  6
CENTER
  62
7
 10
882.857
 20
384.961
 11
882.857
 21
434.961
  0
LINE
  8
1
  6
CENTER
  62
7
 10
857.857
 20
409.961
 11
907.857
 21
409.961
  0
LINE
  8
1
  6
CONTINUOUS
  62
7
 10
873.857
 20
356.961
 11
872.357
 21
361.961
  0
LINE
  8
1
  6
CONTINUOUS
  62
7
 10
881.857
 20
356.961
 11
873.857
 21
356.961
  0
LINE
  8
1
  6
CONTINUOUS
  62
7
 10
883.357
 20
361.961
 11
881.857
 21
356.961
  0
LINE
  8
1
  6
CONTINUOUS
  62
7
 10
872.357
 20
361.961
 11
883.357
 21
361.961
  0
LINE
  8
1
  6
CONTINUOUS
  62
7
 10
873.357
 20
367.961
 11
882.357
 21
367.961
  0
LINE
  8
1
  6
CENTER
  62
7
 10
877.857
 20
369.961
 11
877.857
 21
346.961
  0
LINE
  8
1
  6
CONTINUOUS
  62
7
 10
987.857
 20
404.961
 11
992.857
 21
404.961
  0
LINE
  8
1
  6
CONTINUOUS
  62
7
 10
993.357
 20
405.461
 11
993.357
 21
449.461
  0
LINE
  8
1
  6
CONTINUOUS
  62
7
 10
992.857
 20
449.961
 11
987.857
 21
449.961
  0
LINE
  8
1
  6
CONTINUOUS
  62
7
 10
987.857
 20
449.961
 11
987.857
 21
404.961
  0
LINE
  8
1
  6
CONTINUOUS
  62
7
 10
1013.86
 20
445.993
 11
1013.86
 21
408.929
  0
LINE
  8
1
  6
CONTINUOUS
  62
7
 10
1013.39
 20
446.492
 11
994.34
 21
447.889
  0
LINE
  8
1
  6
CONTINUOUS
  62
7
 10
1013.39
 20
408.43
 11
994.34
 21
407.033
  0
LINE
  8
1
  6
CENTER
  62
7
 10
977.857
 20
427.461
 11
1023.86
 21
427.461
  0
LINE
  8
1
  6
CONTINUOUS
  62
7
 10
987.857
 20
431.461
 11
977.857
 21
431.461
  0
LINE
  8
1
  6
CONTINUOUS
  62
7
 10
977.857
 20
431.461
 11
977.857
 21
423.461
  0
LINE
  8
1
  6
CONTINUOUS
  62
7
 10
977.857
 20
423.461
 11
987.857
 21
423.461
  0
LINE
  8
1
  6
CONTINUOUS
  62
7
 10
880.107
 20
410.461
 11
880.107
 21
409.461
  0
LINE
  8
1
  6
CONTINUOUS
  62
7
 10
885.607
 20
410.461
 11
880.107
 21
410.461
  0
LINE
  8
1
  6
CONTINUOUS
  62
7
 10
885.607
 20
409.461
 11
885.607
 21
410.461
  0
LINE
  8
1
  6
CONTINUOUS
  62
7
 10
880.107
 20
409.461
 11
885.607
 21
409.461
  0
LINE
  8
1
  6
CONTINUOUS
  62
7
 10
320.857
 20
493.961
 11
310.857
 21
493.961
  0
LINE
  8
1
  6
CONTINUOUS
  62
7
 10
315.857
 20
490.961
 11
315.557
 21
490.961
  0
LINE
  8
1
  6
CONTINUOUS
  62
7
 10
315.857
 20
496.961
 11
315.557
 21
496.961
  0
LINE
  8
1
  6
CONTINUOUS
  62
7
 10
315.857
 20
490.961
 11
315.857
 21
496.961
  0
LINE
  8
1
  6
CONTINUOUS
  62
7
 10
313.857
 20
492.661
 11
313.857
 21
495.261
  0
LINE
  8
1
  6
CONTINUOUS
  62
7
 10
849.857
 20
492.661
 11
849.857
 21
495.261
  0
LINE
  8
1
  6
CONTINUOUS
  62
7
 10
847.857
 20
490.961
 11
847.857
 21
496.961
  0
LINE
  8
1
  6
CONTINUOUS
  62
7
 10
847.857
 20
496.961
 11
848.157
 21
496.961
  0
LINE
  8
1
  6
CONTINUOUS
  62
7
 10
847.857
 20
490.961
 11
848.157
 21
490.961
  0
LINE
  8
1
  6
CONTINUOUS
  62
7
 10
842.857
 20
493.961
 11
852.857
 21
493.961
  0
LINE
  8
1
  6
CONTINUOUS
  62
7
 10
369.857
 20
467.961
 11
368.357
 21
467.961
  0
LINE
  8
1
  6
CONTINUOUS
  62
7
 10
369.857
 20
470.961
 11
368.357
 21
470.961
  0
LINE
  8
1
  6
CONTINUOUS
  62
7
 10
369.857
 20
514.961
 11
369.857
 21
464.853
  0
LINE
  8
1
  6
CONTINUOUS
  62
7
 10
779.857
 20
514.961
 11
779.857
 21
464.853
  0
LINE
  8
1
  6
CONTINUOUS
  62
7
 10
369.857
 20
464.853
 11
779.857
 21
464.853
  0
LINE
  8
1
  6
CONTINUOUS
  62
7
 10
369.857
 20
479.845
 11
779.857
 21
479.845
  0
LINE
  8
1
  6
CONTINUOUS
  62
7
 10
369.857
 20
500.324
 11
779.857
 21
500.324
  0
LINE
  8
1
  6
CONTINUOUS
  62
7
 10
369.857
 20
510.324
 11
779.857
 21
510.324
  0
LINE
  8
1
  6
CONTINUOUS
  62
7
 10
320.857
 20
444.896
 11
330.857
 21
444.896
  0
LINE
  8
1
  6
CONTINUOUS
  62
7
 10
325.857
 20
449.896
 11
325.857
 21
439.896
  0
LINE
  8
1
  6
CONTINUOUS
  62
7
 10
322.857
 20
444.896
 11
322.857
 21
444.801
  0
LINE
  8
1
  6
CONTINUOUS
  62
7
 10
322.857
 20
387.945
 11
322.857
 21
387.85
  0
LINE
  8
1
  6
CONTINUOUS
  62
7
 10
325.857
 20
392.945
 11
325.857
 21
382.945
  0
LINE
  8
1
  6
CONTINUOUS
  62
7
 10
320.857
 20
387.945
 11
330.857
 21
387.945
  0
LINE
  8
1
  6
CONTINUOUS
  62
7
 10
802.857
 20
387.945
 11
792.857
 21
387.945
  0
LINE
  8
1
  6
CONTINUOUS
  62
7
 10
797.857
 20
392.945
 11
797.857
 21
382.945
  0
LINE
  8
1
  6
CONTINUOUS
  62
7
 10
800.857
 20
387.945
 11
800.857
 21
387.85
  0
LINE
  8
1
  6
CONTINUOUS
  62
7
 10
800.857
 20
444.896
 11
800.857
 21
444.801
  0
LINE
  8
1
  6
CONTINUOUS
  62
7
 10
797.857
 20
449.896
 11
797.857
 21
439.896
  0
LINE
  8
1
  6
CONTINUOUS
  62
7
 10
802.857
 20
444.896
 11
792.857
 21
444.896
  0
LINE
  8
1
  6
CONTINUOUS
  62
7
 10
847.857
 20
473.961
 11
827.857
 21
494.461
  0
LINE
  8
1
  6
CONTINUOUS
  62
7
 10
807.857
 20
473.961
 11
787.857
 21
473.961
  0
LINE
  8
1
  6
CONTINUOUS
  62
7
 10
807.857
 20
473.961
 11
807.857
 21
493.961
  0
LINE
  8
1
  6
CONTINUOUS
  62
7
 10
335.857
 20
368.961
 11
335.857
 21
514.961
  0
LINE
  8
1
  6
CONTINUOUS
  62
7
 10
787.857
 20
473.961
 11
787.857
 21
368.961
  0
LINE
  8
1
  6
CONTINUOUS
  62
7
 10
807.857
 20
493.961
 11
827.857
 21
493.961
  0
LINE
  8
1
  6
CONTINUOUS
  62
7
 10
827.857
 20
514.961
 11
827.857
 21
493.961
  0
LINE
  8
1
  6
CONTINUOUS
  62
7
 10
755.357
 20
470.961
 11
728.357
 21
470.961
  0
LINE
  8
1
  6
CONTINUOUS
  62
7
 10
755.357
 20
467.961
 11
728.357
 21
467.961
  0
LINE
  8
1
  6
CONTINUOUS
  62
7
 10
715.357
 20
467.961
 11
688.357
 21
467.961
  0
LINE
  8
1
  6
CONTINUOUS
  62
7
 10
715.357
 20
470.961
 11
688.357
 21
470.961
  0
LINE
  8
1
  6
CONTINUOUS
  62
7
 10
675.357
 20
470.961
 11
648.357
 21
470.961
  0
LINE
  8
1
  6
CONTINUOUS
  62
7
 10
675.357
 20
467.961
 11
648.357
 21
467.961
  0
LINE
  8
1
  6
CONTINUOUS
  62
7
 10
635.357
 20
467.961
 11
608.357
 21
467.961
  0
LINE
  8
1
  6
CONTINUOUS
  62
7
 10
635.357
 20
470.961
 11
608.357
 21
470.961
  0
LINE
  8
1
  6
CONTINUOUS
  62
7
 10
595.357
 20
470.961
 11
568.357
 21
470.961
  0
LINE
  8
1
  6
CONTINUOUS
  62
7
 10
595.357
 20
467.961
 11
568.357
 21
467.961
  0
LINE
  8
1
  6
CONTINUOUS
  62
7
 10
555.357
 20
467.961
 11
528.357
 21
467.961
  0
LINE
  8
1
  6
CONTINUOUS
  62
7
 10
555.357
 20
470.961
 11
528.357
 21
470.961
  0
LINE
  8
1
  6
CONTINUOUS
  62
7
 10
515.357
 20
470.961
 11
488.357
 21
470.961
  0
LINE
  8
1
  6
CONTINUOUS
  62
7
 10
515.357
 20
467.961
 11
488.357
 21
467.961
  0
LINE
  8
1
  6
CONTINUOUS
  62
7
 10
475.357
 20
467.961
 11
448.357
 21
467.961
  0
LINE
  8
1
  6
CONTINUOUS
  62
7
 10
475.357
 20
470.961
 11
448.357
 21
470.961
  0
LINE
  8
1
  6
CONTINUOUS
  62
7
 10
395.357
 20
441.181
 11
368.357
 21
441.181
  0
LINE
  8
1
  6
CONTINUOUS
  62
7
 10
395.357
 20
444.028
 11
368.357
 21
444.028
  0
LINE
  8
1
  6
CONTINUOUS
  62
7
 10
435.357
 20
444.028
 11
408.357
 21
444.028
  0
LINE
  8
1
  6
CONTINUOUS
  62
7
 10
435.357
 20
441.181
 11
408.357
 21
441.181
  0
LINE
  8
1
  6
CONTINUOUS
  62
7
 10
475.357
 20
441.181
 11
448.357
 21
441.181
  0
LINE
  8
1
  6
CONTINUOUS
  62
7
 10
475.357
 20
444.028
 11
448.357
 21
444.028
  0
LINE
  8
1
  6
CONTINUOUS
  62
7
 10
555.357
 20
444.028
 11
528.357
 21
444.028
  0
LINE
  8
1
  6
CONTINUOUS
  62
7
 10
555.357
 20
441.181
 11
528.357
 21
441.181
  0
LINE
  8
1
  6
CONTINUOUS
  62
7
 10
515.357
 20
441.181
 11
488.357
 21
441.181
  0
LINE
  8
1
  6
CONTINUOUS
  62
7
 10
515.357
 20
444.028
 11
488.357
 21
444.028
  0
LINE
  8
1
  6
CONTINUOUS
  62
7
 10
755.357
 20
444.028
 11
728.357
 21
444.028
  0
LINE
  8
1
  6
CONTINUOUS
  62
7
 10
755.357
 20
441.181
 11
728.357
 21
441.181
  0
LINE
  8
1
  6
CONTINUOUS
  62
7
 10
675.357
 20
444.028
 11
648.357
 21
444.028
  0
LINE
  8
1
  6
CONTINUOUS
  62
7
 10
675.357
 20
441.181
 11
648.357
 21
441.181
  0
LINE
  8
1
  6
CONTINUOUS
  62
7
 10
715.357
 20
441.181
 11
688.357
 21
441.181
  0
LINE
  8
1
  6
CONTINUOUS
  62
7
 10
715.357
 20
444.028
 11
688.357
 21
444.028
  0
LINE
  8
1
  6
CONTINUOUS
  62
7
 10
635.357
 20
444.028
 11
608.357
 21
444.028
  0
LINE
  8
1
  6
CONTINUOUS
  62
7
 10
635.357
 20
441.181
 11
608.357
 21
441.181
  0
LINE
  8
1
  6
CONTINUOUS
  62
7
 10
595.357
 20
441.181
 11
568.357
 21
441.181
  0
LINE
  8
1
  6
CONTINUOUS
  62
7
 10
595.357
 20
444.028
 11
568.357
 21
444.028
  0
LINE
  8
1
  6
CONTINUOUS
  62
7
 10
415.357
 20
450.673
 11
388.357
 21
450.673
  0
LINE
  8
1
  6
CONTINUOUS
  62
7
 10
415.357
 20
447.825
 11
388.357
 21
447.825
  0
LINE
  8
1
  6
CONTINUOUS
  62
7
 10
455.357
 20
447.825
 11
428.357
 21
447.825
  0
LINE
  8
1
  6
CONTINUOUS
  62
7
 10
455.357
 20
450.673
 11
428.357
 21
450.673
  0
LINE
  8
1
  6
CONTINUOUS
  62
7
 10
495.357
 20
450.673
 11
468.357
 21
450.673
  0
LINE
  8
1
  6
CONTINUOUS
  62
7
 10
495.357
 20
447.825
 11
468.357
 21
447.825
  0
LINE
  8
1
  6
CONTINUOUS
  62
7
 10
575.357
 20
447.825
 11
548.357
 21
447.825
  0
LINE
  8
1
  6
CONTINUOUS
  62
7
 10
575.357
 20
450.673
 11
548.357
 21
450.673
  0
LINE
  8
1
  6
CONTINUOUS
  62
7
 10
535.357
 20
450.673
 11
508.357
 21
450.673
  0
LINE
  8
1
  6
CONTINUOUS
  62
7
 10
535.357
 20
447.825
 11
508.357
 21
447.825
  0
LINE
  8
1
  6
CONTINUOUS
  62
7
 10
695.357
 20
447.825
 11
668.357
 21
447.825
  0
LINE
  8
1
  6
CONTINUOUS
  62
7
 10
695.357
 20
450.673
 11
668.357
 21
450.673
  0
LINE
  8
1
  6
CONTINUOUS
  62
7
 10
735.357
 20
450.673
 11
708.357
 21
450.673
  0
LINE
  8
1
  6
CONTINUOUS
  62
7
 10
735.357
 20
447.825
 11
708.357
 21
447.825
  0
LINE
  8
1
  6
CONTINUOUS
  62
7
 10
655.357
 20
447.825
 11
628.357
 21
447.825
  0
LINE
  8
1
  6
CONTINUOUS
  62
7
 10
655.357
 20
450.673
 11
628.357
 21
450.673
  0
LINE
  8
1
  6
CONTINUOUS
  62
7
 10
615.357
 20
450.673
 11
588.357
 21
450.673
  0
LINE
  8
1
  6
CONTINUOUS
  62
7
 10
615.357
 20
447.825
 11
588.357
 21
447.825
  0
LINE
  8
1
  6
CONTINUOUS
  62
7
 10
595.357
 20
454.469
 11
568.357
 21
454.469
  0
LINE
  8
1
  6
CONTINUOUS
  62
7
 10
595.357
 20
457.317
 11
568.357
 21
457.317
  0
LINE
  8
1
  6
CONTINUOUS
  62
7
 10
615.357
 20
463.961
 11
588.357
 21
463.961
  0
LINE
  8
1
  6
CONTINUOUS
  62
7
 10
615.357
 20
461.114
 11
588.357
 21
461.114
  0
LINE
  8
1
  6
CONTINUOUS
  62
7
 10
655.357
 20
461.114
 11
628.357
 21
461.114
  0
LINE
  8
1
  6
CONTINUOUS
  62
7
 10
655.357
 20
463.961
 11
628.357
 21
463.961
  0
LINE
  8
1
  6
CONTINUOUS
  62
7
 10
635.357
 20
457.317
 11
608.357
 21
457.317
  0
LINE
  8
1
  6
CONTINUOUS
  62
7
 10
635.357
 20
454.469
 11
608.357
 21
454.469
  0
LINE
  8
1
  6
CONTINUOUS
  62
7
 10
715.357
 20
454.469
 11
688.357
 21
454.469
  0
LINE
  8
1
  6
CONTINUOUS
  62
7
 10
715.357
 20
457.317
 11
688.357
 21
457.317
  0
LINE
  8
1
  6
CONTINUOUS
  62
7
 10
735.357
 20
463.961
 11
708.357
 21
463.961
  0
LINE
  8
1
  6
CONTINUOUS
  62
7
 10
735.357
 20
461.114
 11
708.357
 21
461.114
  0
LINE
  8
1
  6
CONTINUOUS
  62
7
 10
695.357
 20
461.114
 11
668.357
 21
461.114
  0
LINE
  8
1
  6
CONTINUOUS
  62
7
 10
695.357
 20
463.961
 11
668.357
 21
463.961
  0
LINE
  8
1
  6
CONTINUOUS
  62
7
 10
675.357
 20
457.317
 11
648.357
 21
457.317
  0
LINE
  8
1
  6
CONTINUOUS
  62
7
 10
675.357
 20
454.469
 11
648.357
 21
454.469
  0
LINE
  8
1
  6
CONTINUOUS
  62
7
 10
755.357
 20
457.317
 11
728.357
 21
457.317
  0
LINE
  8
1
  6
CONTINUOUS
  62
7
 10
755.357
 20
454.469
 11
728.357
 21
454.469
  0
LINE
  8
1
  6
CONTINUOUS
  62
7
 10
515.357
 20
454.469
 11
488.357
 21
454.469
  0
LINE
  8
1
  6
CONTINUOUS
  62
7
 10
515.357
 20
457.317
 11
488.357
 21
457.317
  0
LINE
  8
1
  6
CONTINUOUS
  62
7
 10
535.357
 20
463.961
 11
508.357
 21
463.961
  0
LINE
  8
1
  6
CONTINUOUS
  62
7
 10
535.357
 20
461.114
 11
508.357
 21
461.114
  0
LINE
  8
1
  6
CONTINUOUS
  62
7
 10
575.357
 20
461.114
 11
548.357
 21
461.114
  0
LINE
  8
1
  6
CONTINUOUS
  62
7
 10
575.357
 20
463.961
 11
548.357
 21
463.961
  0
LINE
  8
1
  6
CONTINUOUS
  62
7
 10
555.357
 20
457.317
 11
528.357
 21
457.317
  0
LINE
  8
1
  6
CONTINUOUS
  62
7
 10
555.357
 20
454.469
 11
528.357
 21
454.469
  0
LINE
  8
1
  6
CONTINUOUS
  62
7
 10
475.357
 20
454.469
 11
448.357
 21
454.469
  0
LINE
  8
1
  6
CONTINUOUS
  62
7
 10
475.357
 20
457.317
 11
448.357
 21
457.317
  0
LINE
  8
1
  6
CONTINUOUS
  62
7
 10
495.357
 20
463.961
 11
468.357
 21
463.961
  0
LINE
  8
1
  6
CONTINUOUS
  62
7
 10
495.357
 20
461.114
 11
468.357
 21
461.114
  0
LINE
  8
1
  6
CONTINUOUS
  62
7
 10
455.357
 20
461.114
 11
428.357
 21
461.114
  0
LINE
  8
1
  6
CONTINUOUS
  62
7
 10
455.357
 20
463.961
 11
428.357
 21
463.961
  0
LINE
  8
1
  6
CONTINUOUS
  62
7
 10
435.357
 20
457.317
 11
408.357
 21
457.317
  0
LINE
  8
1
  6
CONTINUOUS
  62
7
 10
435.357
 20
454.469
 11
408.357
 21
454.469
  0
LINE
  8
1
  6
CONTINUOUS
  62
7
 10
395.357
 20
454.469
 11
368.357
 21
454.469
  0
LINE
  8
1
  6
CONTINUOUS
  62
7
 10
395.357
 20
457.317
 11
368.357
 21
457.317
  0
LINE
  8
1
  6
CONTINUOUS
  62
7
 10
415.357
 20
463.961
 11
388.357
 21
463.961
  0
LINE
  8
1
  6
CONTINUOUS
  62
7
 10
415.357
 20
461.114
 11
388.357
 21
461.114
  0
LINE
  8
1
  6
CONTINUOUS
  62
7
 10
395.357
 20
470.961
 11
369.857
 21
470.961
  0
LINE
  8
1
  6
CONTINUOUS
  62
7
 10
395.357
 20
467.961
 11
369.857
 21
467.961
  0
LINE
  8
1
  6
CONTINUOUS
  62
7
 10
435.357
 20
467.961
 11
408.357
 21
467.961
  0
LINE
  8
1
  6
CONTINUOUS
  62
7
 10
435.357
 20
470.961
 11
408.357
 21
470.961
  0
LINE
  8
1
  6
CONTINUOUS
  62
7
 10
395.357
 20
385.097
 11
368.357
 21
385.097
  0
LINE
  8
1
  6
CONTINUOUS
  62
7
 10
395.357
 20
387.945
 11
368.357
 21
387.945
  0
LINE
  8
1
  6
CONTINUOUS
  62
7
 10
395.357
 20
381.301
 11
368.357
 21
381.301
  0
LINE
  8
1
  6
CONTINUOUS
  62
7
 10
395.357
 20
378.453
 11
368.357
 21
378.453
  0
LINE
  8
1
  6
CONTINUOUS
  62
7
 10
435.357
 20
378.453
 11
408.357
 21
378.453
  0
LINE
  8
1
  6
CONTINUOUS
  62
7
 10
435.357
 20
381.301
 11
408.357
 21
381.301
  0
LINE
  8
1
  6
CONTINUOUS
  62
7
 10
435.357
 20
387.945
 11
408.357
 21
387.945
  0
LINE
  8
1
  6
CONTINUOUS
  62
7
 10
435.357
 20
385.097
 11
408.357
 21
385.097
  0
LINE
  8
1
  6
CONTINUOUS
  62
7
 10
475.357
 20
385.097
 11
448.357
 21
385.097
  0
LINE
  8
1
  6
CONTINUOUS
  62
7
 10
475.357
 20
387.945
 11
448.357
 21
387.945
  0
LINE
  8
1
  6
CONTINUOUS
  62
7
 10
475.357
 20
381.301
 11
448.357
 21
381.301
  0
LINE
  8
1
  6
CONTINUOUS
  62
7
 10
475.357
 20
378.453
 11
448.357
 21
378.453
  0
LINE
  8
1
  6
CONTINUOUS
  62
7
 10
555.357
 20
378.453
 11
528.357
 21
378.453
  0
LINE
  8
1
  6
CONTINUOUS
  62
7
 10
555.357
 20
381.301
 11
528.357
 21
381.301
  0
LINE
  8
1
  6
CONTINUOUS
  62
7
 10
555.357
 20
387.945
 11
528.357
 21
387.945
  0
LINE
  8
1
  6
CONTINUOUS
  62
7
 10
555.357
 20
385.097
 11
528.357
 21
385.097
  0
LINE
  8
1
  6
CONTINUOUS
  62
7
 10
515.357
 20
385.097
 11
488.357
 21
385.097
  0
LINE
  8
1
  6
CONTINUOUS
  62
7
 10
515.357
 20
387.945
 11
488.357
 21
387.945
  0
LINE
  8
1
  6
CONTINUOUS
  62
7
 10
515.357
 20
381.301
 11
488.357
 21
381.301
  0
LINE
  8
1
  6
CONTINUOUS
  62
7
 10
515.357
 20
378.453
 11
488.357
 21
378.453
  0
LINE
  8
1
  6
CONTINUOUS
  62
7
 10
755.357
 20
378.453
 11
728.357
 21
378.453
  0
LINE
  8
1
  6
CONTINUOUS
  62
7
 10
755.357
 20
381.301
 11
728.357
 21
381.301
  0
LINE
  8
1
  6
CONTINUOUS
  62
7
 10
755.357
 20
387.945
 11
728.357
 21
387.945
  0
LINE
  8
1
  6
CONTINUOUS
  62
7
 10
755.357
 20
385.097
 11
728.357
 21
385.097
  0
LINE
  8
1
  6
CONTINUOUS
  62
7
 10
675.357
 20
378.453
 11
648.357
 21
378.453
  0
LINE
  8
1
  6
CONTINUOUS
  62
7
 10
675.357
 20
381.301
 11
648.357
 21
381.301
  0
LINE
  8
1
  6
CONTINUOUS
  62
7
 10
675.357
 20
387.945
 11
648.357
 21
387.945
  0
LINE
  8
1
  6
CONTINUOUS
  62
7
 10
675.357
 20
385.097
 11
648.357
 21
385.097
  0
LINE
  8
1
  6
CONTINUOUS
  62
7
 10
715.357
 20
385.097
 11
688.357
 21
385.097
  0
LINE
  8
1
  6
CONTINUOUS
  62
7
 10
715.357
 20
387.945
 11
688.357
 21
387.945
  0
LINE
  8
1
  6
CONTINUOUS
  62
7
 10
715.357
 20
381.301
 11
688.357
 21
381.301
  0
LINE
  8
1
  6
CONTINUOUS
  62
7
 10
715.357
 20
378.453
 11
688.357
 21
378.453
  0
LINE
  8
1
  6
CONTINUOUS
  62
7
 10
635.357
 20
378.453
 11
608.357
 21
378.453
  0
LINE
  8
1
  6
CONTINUOUS
  62
7
 10
635.357
 20
381.301
 11
608.357
 21
381.301
  0
LINE
  8
1
  6
CONTINUOUS
  62
7
 10
635.357
 20
387.945
 11
608.357
 21
387.945
  0
LINE
  8
1
  6
CONTINUOUS
  62
7
 10
635.357
 20
385.097
 11
608.357
 21
385.097
  0
LINE
  8
1
  6
CONTINUOUS
  62
7
 10
595.357
 20
385.097
 11
568.357
 21
385.097
  0
LINE
  8
1
  6
CONTINUOUS
  62
7
 10
595.357
 20
387.945
 11
568.357
 21
387.945
  0
LINE
  8
1
  6
CONTINUOUS
  62
7
 10
595.357
 20
381.301
 11
568.357
 21
381.301
  0
LINE
  8
1
  6
CONTINUOUS
  62
7
 10
595.357
 20
378.453
 11
568.357
 21
378.453
  0
LINE
  8
1
  6
CONTINUOUS
  62
7
 10
807.857
 20
473.961
 11
847.857
 21
473.961
  0
LINE
  8
1
  6
CONTINUOUS
  62
7
 10
807.857
 20
473.961
 11
807.857
 21
368.961
  0
LINE
  8
1
  6
CONTINUOUS
  62
7
 10
807.857
 20
463.961
 11
315.857
 21
463.961
  0
LINE
  8
1
  6
CONTINUOUS
  62
7
 10
315.857
 20
368.961
 11
315.857
 21
514.961
  0
LINE
  8
1
  6
CONTINUOUS
  62
7
 10
847.857
 20
514.961
 11
847.857
 21
473.961
  0
LINE
  8
1
  6
CONTINUOUS
  62
7
 10
294.857
 20
514.961
 11
300.857
 21
518.961
  0
LINE
  8
1
  6
CONTINUOUS
  62
7
 10
868.857
 20
514.961
 11
862.857
 21
518.961
  0
LINE
  8
1
  6
CONTINUOUS
  62
7
 10
294.857
 20
514.961
 11
868.857
 21
514.961
  0
LINE
  8
1
  6
CONTINUOUS
  62
7
 10
300.857
 20
518.961
 11
862.857
 21
518.961
  0
LINE
  8
1
  6
CONTINUOUS
  62
7
 10
807.857
 20
368.961
 11
315.857
 21
368.961
  0
LINE
  8
1
  6
CONTINUOUS
  62
7
 10
196.897
 20
872.486
 11
196.897
 21
869.986
  0
LINE
  8
1
  6
CONTINUOUS
  62
7
 10
196.897
 20
855.486
 11
196.897
 21
857.986
  0
LINE
  8
1
  6
CONTINUOUS
  62
7
 10
196.897
 20
880.486
 11
196.897
 21
882.986
  0
LINE
  8
1
  6
CONTINUOUS
  62
7
 10
196.897
 20
872.486
 11
196.897
 21
869.986
  0
LINE
  8
1
  6
CONTINUOUS
  62
7
 10
196.897
 20
1235.49
 11
196.897
 21
1232.99
  0
LINE
  8
1
  6
CONTINUOUS
  62
7
 10
196.897
 20
880.486
 11
196.897
 21
882.986
  0
LINE
  8
1
  6
CONTINUOUS
  62
7
 10
196.897
 20
1243.49
 11
196.897
 21
1245.99
  0
LINE
  8
1
  6
CONTINUOUS
  62
7
 10
196.897
 20
1235.49
 11
196.897
 21
1232.99
  0
LINE
  8
1
  6
CONTINUOUS
  62
7
 10
196.897
 20
1260.49
 11
196.897
 21
1257.99
  0
LINE
  8
1
  6
CONTINUOUS
  62
7
 10
196.897
 20
1243.49
 11
196.897
 21
1245.99
  0
LINE
  8
1
  6
CONTINUOUS
  62
7
 10
314.357
 20
1333.35
 11
311.857
 21
1333.35
  0
LINE
  8
1
  6
CONTINUOUS
  62
7
 10
297.357
 20
1333.35
 11
299.857
 21
1333.35
  0
LINE
  8
1
  6
CONTINUOUS
  62
7
 10
320.607
 20
1333.35
 11
323.107
 21
1333.35
  0
LINE
  8
1
  6
CONTINUOUS
  62
7
 10
314.357
 20
1333.35
 11
311.857
 21
1333.35
  0
LINE
  8
1
  6
CONTINUOUS
  62
7
 10
350.607
 20
1333.35
 11
348.107
 21
1333.35
  0
LINE
  8
1
  6
CONTINUOUS
  62
7
 10
320.607
 20
1333.35
 11
323.107
 21
1333.35
  0
LINE
  8
1
  6
CONTINUOUS
  62
7
 10
356.857
 20
1333.35
 11
359.357
 21
1333.35
  0
LINE
  8
1
  6
CONTINUOUS
  62
7
 10
350.607
 20
1333.35
 11
348.107
 21
1333.35
  0
LINE
  8
1
  6
CONTINUOUS
  62
7
 10
806.857
 20
1333.35
 11
804.357
 21
1333.35
  0
LINE
  8
1
  6
CONTINUOUS
  62
7
 10
356.857
 20
1333.35
 11
359.357
 21
1333.35
  0
LINE
  8
1
  6
CONTINUOUS
  62
7
 10
813.107
 20
1333.35
 11
815.607
 21
1333.35
  0
LINE
  8
1
  6
CONTINUOUS
  62
7
 10
806.857
 20
1333.35
 11
804.357
 21
1333.35
  0
LINE
  8
1
  6
CONTINUOUS
  62
7
 10
843.107
 20
1333.35
 11
840.607
 21
1333.35
  0
LINE
  8
1
  6
CONTINUOUS
  62
7
 10
813.107
 20
1333.35
 11
815.607
 21
1333.35
  0
LINE
  8
1
  6
CONTINUOUS
  62
7
 10
849.357
 20
1333.35
 11
851.857
 21
1333.35
  0
LINE
  8
1
  6
CONTINUOUS
  62
7
 10
843.107
 20
1333.35
 11
840.607
 21
1333.35
  0
LINE
  8
1
  6
CONTINUOUS
  62
7
 10
866.357
 20
1333.35
 11
863.857
 21
1333.35
  0
LINE
  8
1
  6
CONTINUOUS
  62
7
 10
849.357
 20
1333.35
 11
851.857
 21
1333.35
  0
LINE
  8
1
  6
CONTINUOUS
  62
7
 10
975.357
 20
664.714
 11
972.857
 21
664.714
  0
LINE
  8
1
  6
CONTINUOUS
  62
7
 10
871.357
 20
664.714
 11
873.857
 21
664.714
  0
LINE
  8
1
  6
CONTINUOUS
  62
7
 10
1087.65
 20
935.486
 11
1087.65
 21
932.986
  0
LINE
  8
1
  6
CONTINUOUS
  62
7
 10
1087.65
 20
855.486
 11
1087.65
 21
857.986
  0
LINE
  8
1
  6
CONTINUOUS
  62
7
 10
1087.65
 20
1180.49
 11
1087.65
 21
1182.99
  0
LINE
  8
1
  6
CONTINUOUS
  62
7
 10
1087.65
 20
1260.49
 11
1087.65
 21
1257.99
  0
LINE
  8
1
  6
CONTINUOUS
  62
7
 10
1087.65
 20
940.486
 11
1087.65
 21
942.986
  0
LINE
  8
1
  6
CONTINUOUS
  62
7
 10
1087.65
 20
1175.49
 11
1087.65
 21
1172.99
  0
LINE
  8
1
  6
CONTINUOUS
  62
7
 10
1171.95
 20
855.486
 11
1171.95
 21
857.986
  0
LINE
  8
1
  6
CONTINUOUS
  62
7
 10
1171.95
 20
1260.49
 11
1171.95
 21
1257.99
  0
LINE
  8
1
  6
CONTINUOUS
  62
7
 10
297.357
 20
664.714
 11
299.857
 21
664.714
  0
LINE
  8
1
  6
CONTINUOUS
  62
7
 10
866.357
 20
664.714
 11
863.857
 21
664.714
  0
LINE
  8
1
  6
CONTINUOUS
  62
7
 10
299.857
 20
664.714
 11
863.857
 21
664.714
  0
LINE
  8
1
  6
CONTINUOUS
  62
7
 10
868.857
 20
839.236
 11
868.857
 21
659.714
  0
LINE
  8
1
  6
CONTINUOUS
  62
7
 10
294.857
 20
839.236
 11
294.857
 21
659.714
  0
LINE
  8
1
  6
CONTINUOUS
  62
7
 10
1171.95
 20
857.986
 11
1171.95
 21
1257.99
  0
LINE
  8
1
  6
CONTINUOUS
  62
7
 10
882.607
 20
1262.99
 11
1176.95
 21
1262.99
  0
LINE
  8
1
  6
CONTINUOUS
  62
7
 10
882.607
 20
852.986
 11
1176.95
 21
852.986
  0
LINE
  8
1
  6
CONTINUOUS
  62
7
 10
1087.65
 20
942.986
 11
1087.65
 21
1172.99
  0
LINE
  8
1
  6
CONTINUOUS
  62
7
 10
991.607
 20
1177.99
 11
1092.65
 21
1177.99
  0
LINE
  8
1
  6
CONTINUOUS
  62
7
 10
991.607
 20
937.986
 11
1092.65
 21
937.986
  0
LINE
  8
1
  6
CONTINUOUS
  62
7
 10
1087.65
 20
1182.99
 11
1087.65
 21
1257.99
  0
LINE
  8
1
  6
CONTINUOUS
  62
7
 10
882.607
 20
1262.99
 11
1092.65
 21
1262.99
  0
LINE
  8
1
  6
CONTINUOUS
  62
7
 10
991.607
 20
1177.99
 11
1092.65
 21
1177.99
  0
LINE
  8
1
  6
CONTINUOUS
  62
7
 10
1087.65
 20
932.986
 11
1087.65
 21
857.986
  0
LINE
  8
1
  6
CONTINUOUS
  62
7
 10
882.607
 20
852.986
 11
1092.65
 21
852.986
  0
LINE
  8
1
  6
CONTINUOUS
  62
7
 10
991.607
 20
937.986
 11
1092.65
 21
937.986
  0
LINE
  8
1
  6
CONTINUOUS
  62
7
 10
972.857
 20
664.714
 11
873.857
 21
664.714
  0
LINE
  8
1
  6
CONTINUOUS
  62
7
 10
868.857
 20
839.236
 11
868.857
 21
659.714
  0
LINE
  8
1
  6
CONTINUOUS
  62
7
 10
977.857
 20
924.236
 11
977.857
 21
659.714
  0
LINE
  8
1
  6
CONTINUOUS
  62
7
 10
863.857
 20
1333.35
 11
851.857
 21
1333.35
  0
LINE
  8
1
  6
CONTINUOUS
  62
7
 10
846.857
 20
1254.74
 11
846.857
 21
1338.35
  0
LINE
  8
1
  6
CONTINUOUS
  62
7
 10
868.857
 20
1276.74
 11
868.857
 21
1338.35
  0
LINE
  8
1
  6
CONTINUOUS
  62
7
 10
846.857
 20
1333.35
 11
845.607
 21
1333.35
  0
LINE
  8
1
  6
CONTINUOUS
  62
7
 10
840.607
 20
1333.35
 11
835.607
 21
1333.35
  0
LINE
  8
1
  6
CONTINUOUS
  62
7
 10
851.857
 20
1333.35
 11
856.857
 21
1333.35
  0
LINE
  8
1
  6
CONTINUOUS
  62
7
 10
845.607
 20
1253.74
 11
845.607
 21
1338.35
  0
LINE
  8
1
  6
CONTINUOUS
  62
7
 10
846.857
 20
1254.74
 11
846.857
 21
1338.35
  0
LINE
  8
1
  6
CONTINUOUS
  62
7
 10
840.607
 20
1333.35
 11
815.607
 21
1333.35
  0
LINE
  8
1
  6
CONTINUOUS
  62
7
 10
810.607
 20
1253.74
 11
810.607
 21
1338.35
  0
LINE
  8
1
  6
CONTINUOUS
  62
7
 10
845.607
 20
1253.74
 11
845.607
 21
1338.35
  0
LINE
  8
1
  6
CONTINUOUS
  62
7
 10
810.607
 20
1333.35
 11
809.357
 21
1333.35
  0
LINE
  8
1
  6
CONTINUOUS
  62
7
 10
804.357
 20
1333.35
 11
799.357
 21
1333.35
  0
LINE
  8
1
  6
CONTINUOUS
  62
7
 10
815.607
 20
1333.35
 11
820.607
 21
1333.35
  0
LINE
  8
1
  6
CONTINUOUS
  62
7
 10
809.357
 20
1251.74
 11
809.357
 21
1338.35
  0
LINE
  8
1
  6
CONTINUOUS
  62
7
 10
810.607
 20
1253.74
 11
810.607
 21
1338.35
  0
LINE
  8
1
  6
CONTINUOUS
  62
7
 10
804.357
 20
1333.35
 11
359.357
 21
1333.35
  0
LINE
  8
1
  6
CONTINUOUS
  62
7
 10
354.357
 20
1251.74
 11
354.357
 21
1338.35
  0
LINE
  8
1
  6
CONTINUOUS
  62
7
 10
809.357
 20
1251.74
 11
809.357
 21
1338.35
  0
LINE
  8
1
  6
CONTINUOUS
  62
7
 10
354.357
 20
1333.35
 11
353.107
 21
1333.35
  0
LINE
  8
1
  6
CONTINUOUS
  62
7
 10
348.107
 20
1333.35
 11
343.107
 21
1333.35
  0
LINE
  8
1
  6
CONTINUOUS
  62
7
 10
359.357
 20
1333.35
 11
364.357
 21
1333.35
  0
LINE
  8
1
  6
CONTINUOUS
  62
7
 10
353.107
 20
1253.74
 11
353.107
 21
1338.35
  0
LINE
  8
1
  6
CONTINUOUS
  62
7
 10
354.357
 20
1251.74
 11
354.357
 21
1338.35
  0
LINE
  8
1
  6
CONTINUOUS
  62
7
 10
348.107
 20
1333.35
 11
323.107
 21
1333.35
  0
LINE
  8
1
  6
CONTINUOUS
  62
7
 10
318.107
 20
1253.74
 11
318.107
 21
1338.35
  0
LINE
  8
1
  6
CONTINUOUS
  62
7
 10
353.107
 20
1253.74
 11
353.107
 21
1338.35
  0
LINE
  8
1
  6
CONTINUOUS
  62
7
 10
318.107
 20
1333.35
 11
316.857
 21
1333.35
  0
LINE
  8
1
  6
CONTINUOUS
  62
7
 10
311.857
 20
1333.35
 11
306.857
 21
1333.35
  0
LINE
  8
1
  6
CONTINUOUS
  62
7
 10
323.107
 20
1333.35
 11
328.107
 21
1333.35
  0
LINE
  8
1
  6
CONTINUOUS
  62
7
 10
316.857
 20
1254.74
 11
316.857
 21
1338.35
  0
LINE
  8
1
  6
CONTINUOUS
  62
7
 10
318.107
 20
1253.74
 11
318.107
 21
1338.35
  0
LINE
  8
1
  6
CONTINUOUS
  62
7
 10
311.857
 20
1333.35
 11
299.857
 21
1333.35
  0
LINE
  8
1
  6
CONTINUOUS
  62
7
 10
294.857
 20
1276.74
 11
294.857
 21
1338.35
  0
LINE
  8
1
  6
CONTINUOUS
  62
7
 10
316.857
 20
1254.74
 11
316.857
 21
1338.35
  0
LINE
  8
1
  6
CONTINUOUS
  62
7
 10
196.897
 20
1257.99
 11
196.897
 21
1245.99
  0
LINE
  8
1
  6
CONTINUOUS
  62
7
 10
303.107
 20
1240.99
 11
191.897
 21
1240.99
  0
LINE
  8
1
  6
CONTINUOUS
  62
7
 10
281.107
 20
1262.99
 11
191.897
 21
1262.99
  0
LINE
  8
1
  6
CONTINUOUS
  62
7
 10
196.897
 20
1240.99
 11
196.897
 21
1237.99
  0
LINE
  8
1
  6
CONTINUOUS
  62
7
 10
196.897
 20
1232.99
 11
196.897
 21
1227.99
  0
LINE
  8
1
  6
CONTINUOUS
  62
7
 10
196.897
 20
1245.99
 11
196.897
 21
1250.99
  0
LINE
  8
1
  6
CONTINUOUS
  62
7
 10
340.607
 20
1237.99
 11
191.897
 21
1237.99
  0
LINE
  8
1
  6
CONTINUOUS
  62
7
 10
303.107
 20
1240.99
 11
191.897
 21
1240.99
  0
LINE
  8
1
  6
CONTINUOUS
  62
7
 10
196.897
 20
1232.99
 11
196.897
 21
882.986
  0
LINE
  8
1
  6
CONTINUOUS
  62
7
 10
340.607
 20
877.986
 11
191.897
 21
877.986
  0
LINE
  8
1
  6
CONTINUOUS
  62
7
 10
340.607
 20
1237.99
 11
191.897
 21
1237.99
  0
LINE
  8
1
  6
CONTINUOUS
  62
7
 10
196.897
 20
877.986
 11
196.897
 21
874.986
  0
LINE
  8
1
  6
CONTINUOUS
  62
7
 10
196.897
 20
869.986
 11
196.897
 21
864.986
  0
LINE
  8
1
  6
CONTINUOUS
  62
7
 10
196.897
 20
882.986
 11
196.897
 21
887.986
  0
LINE
  8
1
  6
CONTINUOUS
  62
7
 10
303.107
 20
874.986
 11
191.897
 21
874.986
  0
LINE
  8
1
  6
CONTINUOUS
  62
7
 10
340.607
 20
877.986
 11
191.897
 21
877.986
  0
LINE
  8
1
  6
CONTINUOUS
  62
7
 10
196.897
 20
869.986
 11
196.897
 21
857.986
  0
LINE
  8
1
  6
CONTINUOUS
  62
7
 10
281.107
 20
852.986
 11
191.897
 21
852.986
  0
LINE
  8
1
  6
CONTINUOUS
  62
7
 10
303.107
 20
874.986
 11
191.897
 21
874.986
  0
LINE
  8
1
  6
CONTINUOUS
  62
7
 10
385.771
 20
953.75
 11
386.95
 21
954.928
  0
LINE
  8
1
  6
CONTINUOUS
  62
7
 10
382.825
 20
957.875
 11
386.95
 21
954.928
  0
LINE
  8
1
  6
CONTINUOUS
  62
7
 10
385.771
 20
953.75
 11
382.825
 21
957.875
  0
LINE
  8
1
  6
CONTINUOUS
  62
7
 10
936.804
 20
997.111
 11
937.982
 21
998.289
  0
LINE
  8
1
  6
CONTINUOUS
  62
7
 10
933.857
 20
1001.24
 11
937.982
 21
998.289
  0
LINE
  8
1
  6
CONTINUOUS
  62
7
 10
936.804
 20
997.111
 11
933.857
 21
1001.24
  0
LINE
  8
1
  6
CONTINUOUS
  62
7
 10
515.804
 20
1053.86
 11
516.982
 21
1055.04
  0
LINE
  8
1
  6
CONTINUOUS
  62
7
 10
512.857
 20
1057.99
 11
516.982
 21
1055.04
  0
LINE
  8
1
  6
CONTINUOUS
  62
7
 10
515.804
 20
1053.86
 11
512.857
 21
1057.99
  0
LINE
  8
1
  6
CONTINUOUS
  62
7
 10
613.804
 20
1027.11
 11
614.982
 21
1028.29
  0
LINE
  8
1
  6
CONTINUOUS
  62
7
 10
610.857
 20
1031.24
 11
614.982
 21
1028.29
  0
LINE
  8
1
  6
CONTINUOUS
  62
7
 10
613.804
 20
1027.11
 11
610.857
 21
1031.24
  0
LINE
  8
1
  6
CONTINUOUS
  62
7
 10
832.232
 20
1160.43
 11
831.054
 21
1161.61
  0
LINE
  8
1
  6
CONTINUOUS
  62
7
 10
828.107
 20
1157.49
 11
831.054
 21
1161.61
  0
LINE
  8
1
  6
CONTINUOUS
  62
7
 10
832.232
 20
1160.43
 11
828.107
 21
1157.49
  0
LINE
  8
1
  6
CONTINUOUS
  62
7
 10
682.335
 20
1087.93
 11
681.157
 21
1089.11
  0
LINE
  8
1
  6
CONTINUOUS
  62
7
 10
678.211
 20
1084.99
 11
681.157
 21
1089.11
  0
LINE
  8
1
  6
CONTINUOUS
  62
7
 10
682.335
 20
1087.93
 11
678.211
 21
1084.99
  0
LINE
  8
1
  6
CONTINUOUS
  62
7
 10
337.228
 20
1168.05
 11
336.049
 21
1169.22
  0
LINE
  8
1
  6
CONTINUOUS
  62
7
 10
333.103
 20
1165.1
 11
336.049
 21
1169.22
  0
LINE
  8
1
  6
CONTINUOUS
  62
7
 10
337.228
 20
1168.05
 11
333.103
 21
1165.1
  0
LINE
  8
1
  6
CONTINUOUS
  62
7
 10
457.419
 20
1128.02
 11
456.24
 21
1129.2
  0
LINE
  8
1
  6
CONTINUOUS
  62
7
 10
453.294
 20
1125.08
 11
456.24
 21
1129.2
  0
LINE
  8
1
  6
CONTINUOUS
  62
7
 10
457.419
 20
1128.02
 11
453.294
 21
1125.08
  0
LINE
  8
1
  6
CONTINUOUS
  62
7
 10
893.573
 20
1217.75
 11
943.573
 21
1217.75
  0
LINE
  8
1
  6
CONTINUOUS
  62
7
 10
888.368
 20
1217.75
 11
893.573
 21
1217.75
  0
LINE
  8
1
  6
CONTINUOUS
  62
7
 10
831.643
 20
1161.02
 11
888.368
 21
1217.75
  0
LINE
  8
1
  6
CONTINUOUS
  62
7
 10
966.81
 20
1296.67
 11
1098.48
 21
1296.67
  0
LINE
  8
1
  6
CONTINUOUS
  62
7
 10
889.896
 20
1296.67
 11
966.81
 21
1296.67
  0
LINE
  8
1
  6
CONTINUOUS
  62
7
 10
681.746
 20
1088.52
 11
889.896
 21
1296.67
  0
LINE
  8
1
  6
CONTINUOUS
  62
7
 10
475
 20
1294.43
 11
525
 21
1294.43
  0
LINE
  8
1
  6
CONTINUOUS
  62
7
 10
462.439
 20
1294.43
 11
475
 21
1294.43
  0
LINE
  8
1
  6
CONTINUOUS
  62
7
 10
336.639
 20
1168.63
 11
462.439
 21
1294.43
  0
LINE
  8
1
  6
CONTINUOUS
  62
7
 10
638.745
 20
1295.04
 11
695.412
 21
1295.04
  0
LINE
  8
1
  6
CONTINUOUS
  62
7
 10
623.252
 20
1295.04
 11
638.745
 21
1295.04
  0
LINE
  8
1
  6
CONTINUOUS
  62
7
 10
456.829
 20
1128.61
 11
623.252
 21
1295.04
  0
LINE
  8
1
  6
CONTINUOUS
  62
7
 10
1126.63
 20
815.213
 11
1231.63
 21
815.213
  0
LINE
  8
1
  6
CONTINUOUS
  62
7
 10
1119.88
 20
815.213
 11
1126.63
 21
815.213
  0
LINE
  8
1
  6
CONTINUOUS
  62
7
 10
937.393
 20
997.7
 11
1119.88
 21
815.213
  0
LINE
  8
1
  6
CONTINUOUS
  62
7
 10
1001.33
 20
725.697
 11
1088
 21
725.697
  0
LINE
  8
1
  6
CONTINUOUS
  62
7
 10
845.146
 20
725.697
 11
1001.33
 21
725.697
  0
LINE
  8
1
  6
CONTINUOUS
  62
7
 10
516.393
 20
1054.45
 11
845.146
 21
725.697
  0
LINE
  8
1
  6
CONTINUOUS
  62
7
 10
999.114
 20
765.774
 11
1161.61
 21
765.774
  0
LINE
  8
1
  6
CONTINUOUS
  62
7
 10
876.319
 20
765.774
 11
999.114
 21
765.774
  0
LINE
  8
1
  6
CONTINUOUS
  62
7
 10
614.393
 20
1027.7
 11
876.319
 21
765.774
  0
LINE
  8
1
  6
CONTINUOUS
  62
7
 10
318.857
 20
1127.99
 11
318.857
 21
987.986
  0
LINE
  8
1
  6
CONTINUOUS
  62
7
 10
408.857
 20
1157.99
 11
348.857
 21
1157.99
  0
LINE
  8
1
  6
CONTINUOUS
  62
7
 10
438.857
 20
987.986
 11
438.857
 21
1127.99
  0
LINE
  8
1
  6
CONTINUOUS
  62
7
 10
348.857
 20
957.986
 11
408.857
 21
957.986
  0
LINE
  8
1
  6
CONTINUOUS
  62
7
 10
762.958
 20
1070.99
 11
783.942
 21
1091.97
  0
LINE
  8
1
  6
CONTINUOUS
  62
7
 10
758.715
 20
1070.99
 11
781.82
 21
1094.09
  0
LINE
  8
1
  6
CONTINUOUS
  62
7
 10
640.857
 20
1032.24
 11
696.798
 21
1032.24
  0
LINE
  8
1
  6
CONTINUOUS
  62
7
 10
640.857
 20
1035.24
 11
696.798
 21
1035.24
  0
LINE
  8
1
  6
CONTINUOUS
  62
7
 10
694.857
 20
1078.49
 11
730.752
 21
1078.49
  0
LINE
  8
1
  6
CONTINUOUS
  62
7
 10
694.857
 20
1082.49
 11
730.752
 21
1082.49
  0
LINE
  8
1
  6
CONTINUOUS
  62
7
 10
640.857
 20
1083.99
 11
640.857
 21
1076.99
  0
LINE
  8
1
  6
CONTINUOUS
  62
7
 10
641.857
 20
1075.99
 11
683.857
 21
1075.99
  0
LINE
  8
1
  6
CONTINUOUS
  62
7
 10
685.857
 20
1075.99
 11
685.857
 21
1084.99
  0
LINE
  8
1
  6
CONTINUOUS
  62
7
 10
683.857
 20
1084.99
 11
641.857
 21
1084.99
  0
LINE
  8
1
  6
CONTINUOUS
  62
7
 10
683.857
 20
1075.99
 11
683.857
 21
1084.99
  0
LINE
  8
1
  6
CONTINUOUS
  62
7
 10
686.857
 20
1086.49
 11
693.857
 21
1086.49
  0
LINE
  8
1
  6
CONTINUOUS
  62
7
 10
693.857
 20
1074.49
 11
686.857
 21
1074.49
  0
LINE
  8
1
  6
CONTINUOUS
  62
7
 10
694.857
 20
1075.99
 11
694.857
 21
1084.99
  0
LINE
  8
1
  6
CONTINUOUS
  62
7
 10
693.857
 20
1083.49
 11
686.857
 21
1083.49
  0
LINE
  8
1
  6
CONTINUOUS
  62
7
 10
693.857
 20
1077.49
 11
686.857
 21
1077.49
  0
LINE
  8
1
  6
CONTINUOUS
  62
7
 10
685.857
 20
1083.99
 11
683.857
 21
1083.99
  0
LINE
  8
1
  6
CONTINUOUS
  62
7
 10
683.857
 20
1076.99
 11
685.857
 21
1076.99
  0
LINE
  8
1
  6
CONTINUOUS
  62
7
 10
600.857
 20
1031.24
 11
605.857
 21
1031.24
  0
LINE
  8
1
  6
CONTINUOUS
  62
7
 10
640.857
 20
1030.74
 11
640.857
 21
1036.74
  0
LINE
  8
1
  6
CONTINUOUS
  62
7
 10
625.357
 20
1036.24
 11
623.857
 21
1036.24
  0
LINE
  8
1
  6
CONTINUOUS
  62
7
 10
640.857
 20
1036.74
 11
625.357
 21
1036.74
  0
LINE
  8
1
  6
CONTINUOUS
  62
7
 10
605.857
 20
1030.74
 11
610.857
 21
1030.74
  0
LINE
  8
1
  6
CONTINUOUS
  62
7
 10
605.857
 20
1036.74
 11
605.857
 21
1030.74
  0
LINE
  8
1
  6
CONTINUOUS
  62
7
 10
591.357
 20
1034.24
 11
594.357
 21
1034.24
  0
LINE
  8
1
  6
CONTINUOUS
  62
7
 10
591.357
 20
1033.24
 11
594.357
 21
1033.24
  0
LINE
  8
1
  6
CONTINUOUS
  62
7
 10
594.357
 20
1034.24
 11
600.857
 21
1036.24
  0
LINE
  8
1
  6
CONTINUOUS
  62
7
 10
594.357
 20
1033.24
 11
600.857
 21
1031.24
  0
LINE
  8
1
  6
CONTINUOUS
  62
7
 10
610.857
 20
1036.74
 11
610.857
 21
1030.74
  0
LINE
  8
1
  6
CONTINUOUS
  62
7
 10
623.857
 20
1036.74
 11
623.857
 21
1030.74
  0
LINE
  8
1
  6
CONTINUOUS
  62
7
 10
619.857
 20
1036.74
 11
619.857
 21
1030.74
  0
LINE
  8
1
  6
CONTINUOUS
  62
7
 10
612.357
 20
1036.74
 11
612.357
 21
1030.74
  0
LINE
  8
1
  6
CONTINUOUS
  62
7
 10
621.357
 20
1036.74
 11
621.357
 21
1030.74
  0
LINE
  8
1
  6
CONTINUOUS
  62
7
 10
625.357
 20
1036.74
 11
625.357
 21
1030.74
  0
LINE
  8
1
  6
CONTINUOUS
  62
7
 10
610.857
 20
1036.74
 11
605.857
 21
1036.74
  0
LINE
  8
1
  6
CONTINUOUS
  62
7
 10
619.857
 20
1036.74
 11
612.357
 21
1036.74
  0
LINE
  8
1
  6
CONTINUOUS
  62
7
 10
623.857
 20
1036.74
 11
621.357
 21
1036.74
  0
LINE
  8
1
  6
CONTINUOUS
  62
7
 10
625.357
 20
1030.74
 11
640.857
 21
1030.74
  0
LINE
  8
1
  6
CONTINUOUS
  62
7
 10
621.357
 20
1030.74
 11
623.857
 21
1030.74
  0
LINE
  8
1
  6
CONTINUOUS
  62
7
 10
612.357
 20
1030.74
 11
619.857
 21
1030.74
  0
LINE
  8
1
  6
CONTINUOUS
  62
7
 10
605.857
 20
1036.24
 11
600.857
 21
1036.24
  0
LINE
  8
1
  6
CONTINUOUS
  62
7
 10
610.857
 20
1031.24
 11
612.357
 21
1031.24
  0
LINE
  8
1
  6
CONTINUOUS
  62
7
 10
612.357
 20
1036.24
 11
610.857
 21
1036.24
  0
LINE
  8
1
  6
CONTINUOUS
  62
7
 10
619.857
 20
1031.24
 11
621.357
 21
1031.24
  0
LINE
  8
1
  6
CONTINUOUS
  62
7
 10
621.357
 20
1036.24
 11
619.857
 21
1036.24
  0
LINE
  8
1
  6
CONTINUOUS
  62
7
 10
623.857
 20
1031.24
 11
625.357
 21
1031.24
  0
LINE
  8
1
  6
CONTINUOUS
  62
7
 10
575.111
 20
782.196
 11
637.611
 21
782.196
  0
LINE
  8
1
  6
CONTINUOUS
  62
7
 10
558.503
 20
782.196
 11
575.111
 21
782.196
  0
LINE
  8
1
  6
CONTINUOUS
  62
7
 10
386.36
 20
954.339
 11
558.503
 21
782.196
  0
LINE
  8
1
  6
CONTINUOUS
  62
7
 10
354.357
 20
1117.99
 11
354.357
 21
1237.99
  0
LINE
  8
1
  6
CONTINUOUS
  62
7
 10
868.857
 20
937.986
 11
977.857
 21
937.986
  0
LINE
  8
1
  6
CONTINUOUS
  62
7
 10
868.857
 20
947.986
 11
967.857
 21
947.986
  0
LINE
  8
1
  6
CONTINUOUS
  62
7
 10
868.857
 20
958.986
 11
898.857
 21
958.986
  0
LINE
  8
1
  6
HIDDEN
  62
7
 10
868.857
 20
987.986
 11
867.857
 21
987.986
  0
LINE
  8
1
  6
HIDDEN
  62
7
 10
868.857
 20
1063.99
 11
865.857
 21
1063.99
  0
LINE
  8
1
  6
CONTINUOUS
  62
7
 10
868.857
 20
1045.99
 11
884.857
 21
1045.99
  0
LINE
  8
1
  6
CONTINUOUS
  62
7
 10
868.857
 20
1002.99
 11
884.857
 21
1002.99
  0
LINE
  8
1
  6
HIDDEN
  62
7
 10
868.857
 20
1122.99
 11
817.857
 21
1122.99
  0
LINE
  8
1
  6
HIDDEN
  62
7
 10
868.857
 20
1167.99
 11
817.857
 21
1167.99
  0
LINE
  8
1
  6
HIDDEN
  62
7
 10
868.857
 20
1177.99
 11
807.857
 21
1177.99
  0
LINE
  8
1
  6
CENTER
  62
7
 10
874.857
 20
1002.99
 11
874.857
 21
1057.99
  0
LINE
  8
1
  6
CENTER
  62
7
 10
882.857
 20
997.986
 11
882.857
 21
919.724
  0
LINE
  8
1
  6
CENTER
  62
7
 10
858.857
 20
1017.99
 11
1014.36
 21
1017.99
  0
LINE
  8
1
  6
CENTER
  62
7
 10
996.857
 20
1000.49
 11
996.857
 21
1035.49
  0
LINE
  8
1
  6
CONTINUOUS
  62
7
 10
879.857
 20
1045.99
 11
879.857
 21
1048.99
  0
LINE
  8
1
  6
HIDDEN
  62
7
 10
869.857
 20
1048.99
 11
869.857
 21
1045.99
  0
LINE
  8
1
  6
HIDDEN
  62
7
 10
857.857
 20
1067.99
 11
857.857
 21
1047.99
  0
LINE
  8
1
  6
HIDDEN
  62
7
 10
860.857
 20
1067.99
 11
857.857
 21
1067.99
  0
LINE
  8
1
  6
HIDDEN
  62
7
 10
860.857
 20
1047.99
 11
860.857
 21
1067.99
  0
LINE
  8
1
  6
HIDDEN
  62
7
 10
857.857
 20
1047.99
 11
860.857
 21
1047.99
  0
LINE
  8
1
  6
HIDDEN
  62
7
 10
860.857
 20
1053.99
 11
865.857
 21
1053.99
  0
LINE
  8
1
  6
HIDDEN
  62
7
 10
865.857
 20
1061.99
 11
860.857
 21
1061.99
  0
LINE
  8
1
  6
HIDDEN
  62
7
 10
868.857
 20
1051.99
 11
868.857
 21
1048.99
  0
LINE
  8
1
  6
HIDDEN
  62
7
 10
865.857
 20
1051.99
 11
868.857
 21
1051.99
  0
LINE
  8
1
  6
HIDDEN
  62
7
 10
865.857
 20
1063.99
 11
865.857
 21
1051.99
  0
LINE
  8
1
  6
CONTINUOUS
  62
7
 10
875.857
 20
1063.99
 11
868.857
 21
1063.99
  0
LINE
  8
1
  6
CONTINUOUS
  62
7
 10
880.857
 20
1048.99
 11
880.857
 21
1058.99
  0
LINE
  8
1
  6
CONTINUOUS
  62
7
 10
868.857
 20
1048.99
 11
880.857
 21
1048.99
  0
LINE
  8
1
  6
HIDDEN
  62
7
 10
857.857
 20
1049.99
 11
852.857
 21
1049.99
  0
LINE
  8
1
  6
HIDDEN
  62
7
 10
857.857
 20
1065.99
 11
852.857
 21
1065.99
  0
LINE
  8
1
  6
HIDDEN
  62
7
 10
857.857
 20
1052.99
 11
860.857
 21
1052.99
  0
LINE
  8
1
  6
HIDDEN
  62
7
 10
857.857
 20
1062.99
 11
860.857
 21
1062.99
  0
LINE
  8
1
  6
CENTER
  62
7
 10
1024.06
 20
1102.99
 11
861.857
 21
1102.99
  0
LINE
  8
1
  6
CONTINUOUS
  62
7
 10
872.857
 20
1097.49
 11
884.857
 21
1097.49
  0
LINE
  8
1
  6
CONTINUOUS
  62
7
 10
871.857
 20
1107.49
 11
871.857
 21
1098.49
  0
LINE
  8
1
  6
CONTINUOUS
  62
7
 10
884.857
 20
1108.49
 11
872.857
 21
1108.49
  0
LINE
  8
1
  6
CONTINUOUS
  62
7
 10
885.857
 20
1095.49
 11
894.857
 21
1095.49
  0
LINE
  8
1
  6
CONTINUOUS
  62
7
 10
884.857
 20
1109.49
 11
884.857
 21
1096.49
  0
LINE
  8
1
  6
CONTINUOUS
  62
7
 10
894.857
 20
1110.49
 11
885.857
 21
1110.49
  0
LINE
  8
1
  6
CENTER
  62
7
 10
877.857
 20
1085.49
 11
877.857
 21
1120.49
  0
LINE
  8
1
  6
CONTINUOUS
  62
7
 10
895.857
 20
1087.99
 11
895.857
 21
1035.99
  0
LINE
  8
1
  6
CONTINUOUS
  62
7
 10
895.857
 20
1122.99
 11
895.857
 21
1117.99
  0
LINE
  8
1
  6
CONTINUOUS
  62
7
 10
895.857
 20
1122.99
 11
868.857
 21
1122.99
  0
LINE
  8
1
  6
HIDDEN
  62
7
 10
817.857
 20
1002.99
 11
858.857
 21
1002.99
  0
LINE
  8
1
  6
CONTINUOUS
  62
7
 10
1013.86
 20
1107.53
 11
1013.86
 21
1098.44
  0
LINE
  8
1
  6
CONTINUOUS
  62
7
 10
987.857
 20
1125.49
 11
987.857
 21
1080.49
  0
LINE
  8
1
  6
CONTINUOUS
  62
7
 10
993.357
 20
1080.99
 11
993.357
 21
1124.99
  0
LINE
  8
1
  6
CONTINUOUS
  62
7
 10
987.857
 20
1080.49
 11
992.857
 21
1080.49
  0
LINE
  8
1
  6
CONTINUOUS
  62
7
 10
995.163
 20
1096.16
 11
1013.41
 21
1097.94
  0
LINE
  8
1
  6
CONTINUOUS
  62
7
 10
994.245
 20
1094.39
 11
993.356
 21
1080.95
  0
LINE
  8
1
  6
CONTINUOUS
  62
7
 10
994.245
 20
1111.58
 11
993.356
 21
1125.02
  0
LINE
  8
1
  6
CONTINUOUS
  62
7
 10
987.857
 20
1125.49
 11
992.857
 21
1125.49
  0
LINE
  8
1
  6
CONTINUOUS
  62
7
 10
995.163
 20
1109.81
 11
1013.41
 21
1108.03
  0
LINE
  8
1
  6
CONTINUOUS
  62
7
 10
987.857
 20
1106.99
 11
977.857
 21
1106.99
  0
LINE
  8
1
  6
CONTINUOUS
  62
7
 10
977.857
 20
1098.99
 11
987.857
 21
1098.99
  0
LINE
  8
1
  6
CONTINUOUS
  62
7
 10
967.857
 20
1015.49
 11
943.857
 21
1015.49
  0
LINE
  8
1
  6
CONTINUOUS
  62
7
 10
967.857
 20
1020.49
 11
943.857
 21
1020.49
  0
LINE
  8
1
  6
HIDDEN
  62
7
 10
817.857
 20
1177.99
 11
817.857
 21
937.986
  0
LINE
  8
1
  6
HIDDEN
  62
7
 10
866.357
 20
937.986
 11
866.357
 21
928.986
  0
LINE
  8
1
  6
CONTINUOUS
  62
7
 10
898.857
 20
958.986
 11
898.857
 21
986.986
  0
LINE
  8
1
  6
CONTINUOUS
  62
7
 10
898.257
 20
947.986
 11
898.257
 21
958.986
  0
LINE
  8
1
  6
HIDDEN
  62
7
 10
867.457
 20
958.986
 11
867.457
 21
947.986
  0
LINE
  8
1
  6
HIDDEN
  62
7
 10
866.857
 20
958.986
 11
868.857
 21
958.986
  0
LINE
  8
1
  6
CONTINUOUS
  62
7
 10
867.357
 20
927.986
 11
898.357
 21
927.986
  0
LINE
  8
1
  6
HIDDEN
  62
7
 10
866.857
 20
986.986
 11
866.857
 21
958.986
  0
LINE
  8
1
  6
CONTINUOUS
  62
7
 10
897.857
 20
987.986
 11
868.857
 21
987.986
  0
LINE
  8
1
  6
CONTINUOUS
  62
7
 10
899.357
 20
928.986
 11
899.357
 21
937.986
  0
LINE
  8
1
  6
CONTINUOUS
  62
7
 10
932.857
 20
1166.99
 11
937.857
 21
1166.99
  0
LINE
  8
1
  6
CONTINUOUS
  62
7
 10
932.857
 20
1158.99
 11
932.857
 21
1166.99
  0
LINE
  8
1
  6
CONTINUOUS
  62
7
 10
882.857
 20
1167.99
 11
882.857
 21
1158.99
  0
LINE
  8
1
  6
CONTINUOUS
  62
7
 10
937.857
 20
1166.99
 11
937.857
 21
1167.99
  0
LINE
  8
1
  6
CONTINUOUS
  62
7
 10
882.857
 20
1158.99
 11
932.857
 21
1158.99
  0
LINE
  8
1
  6
CONTINUOUS
  62
7
 10
948.857
 20
1076.99
 11
948.857
 21
1086.99
  0
LINE
  8
1
  6
CONTINUOUS
  62
7
 10
961.857
 20
1115.99
 11
967.857
 21
1115.99
  0
LINE
  8
1
  6
CONTINUOUS
  62
7
 10
961.857
 20
1121.99
 11
961.857
 21
1115.99
  0
LINE
  8
1
  6
CONTINUOUS
  62
7
 10
967.857
 20
1121.99
 11
961.857
 21
1121.99
  0
LINE
  8
1
  6
CONTINUOUS
  62
7
 10
948.857
 20
1076.99
 11
967.857
 21
1076.99
  0
LINE
  8
1
  6
CONTINUOUS
  62
7
 10
948.857
 20
1086.99
 11
966.857
 21
1086.99
  0
LINE
  8
1
  6
CONTINUOUS
  62
7
 10
966.857
 20
1076.99
 11
966.857
 21
1115.99
  0
LINE
  8
1
  6
CONTINUOUS
  62
7
 10
899.857
 20
1117.99
 11
899.857
 21
1087.99
  0
LINE
  8
1
  6
CONTINUOUS
  62
7
 10
899.857
 20
1087.99
 11
894.857
 21
1087.99
  0
LINE
  8
1
  6
CONTINUOUS
  62
7
 10
899.857
 20
1117.99
 11
894.857
 21
1117.99
  0
LINE
  8
1
  6
CONTINUOUS
  62
7
 10
941.857
 20
1096.06
 11
945.857
 21
1102.99
  0
LINE
  8
1
  6
CONTINUOUS
  62
7
 10
933.857
 20
1096.06
 11
941.857
 21
1096.06
  0
LINE
  8
1
  6
CONTINUOUS
  62
7
 10
929.857
 20
1102.99
 11
933.857
 21
1096.06
  0
LINE
  8
1
  6
CONTINUOUS
  62
7
 10
933.857
 20
1109.91
 11
929.857
 21
1102.99
  0
LINE
  8
1
  6
CONTINUOUS
  62
7
 10
941.857
 20
1109.91
 11
933.857
 21
1109.91
  0
LINE
  8
1
  6
CONTINUOUS
  62
7
 10
945.857
 20
1102.99
 11
941.857
 21
1109.91
  0
LINE
  8
1
  6
CONTINUOUS
  62
7
 10
939.903
 20
1111.99
 11
929.857
 21
1110.99
  0
LINE
  8
1
  6
CONTINUOUS
  62
7
 10
949.857
 20
1092.99
 11
929.857
 21
1094.99
  0
LINE
  8
1
  6
CONTINUOUS
  62
7
 10
961.857
 20
1091.99
 11
961.857
 21
1113.99
  0
LINE
  8
1
  6
CONTINUOUS
  62
7
 10
951.357
 20
1121.99
 11
951.766
 21
1112.99
  0
LINE
  8
1
  6
CONTINUOUS
  62
7
 10
939.903
 20
1111.99
 11
940.357
 21
1121.99
  0
LINE
  8
1
  6
CONTINUOUS
  62
7
 10
951.357
 20
1121.99
 11
940.357
 21
1121.99
  0
LINE
  8
1
  6
CONTINUOUS
  62
7
 10
961.857
 20
1091.99
 11
966.857
 21
1091.99
  0
LINE
  8
1
  6
CONTINUOUS
  62
7
 10
966.857
 20
1113.99
 11
961.857
 21
1113.99
  0
LINE
  8
1
  6
CONTINUOUS
  62
7
 10
949.857
 20
1092.99
 11
961.857
 21
1092.99
  0
LINE
  8
1
  6
CONTINUOUS
  62
7
 10
961.857
 20
1112.99
 11
951.766
 21
1112.99
  0
LINE
  8
1
  6
CONTINUOUS
  62
7
 10
894.857
 20
1117.99
 11
894.857
 21
1087.99
  0
LINE
  8
1
  6
CONTINUOUS
  62
7
 10
929.857
 20
1110.99
 11
899.857
 21
1110.99
  0
LINE
  8
1
  6
CONTINUOUS
  62
7
 10
967.857
 20
1076.99
 11
967.857
 21
1121.99
  0
LINE
  8
1
  6
CONTINUOUS
  62
7
 10
899.857
 20
1094.99
 11
929.857
 21
1094.99
  0
LINE
  8
1
  6
CONTINUOUS
  62
7
 10
987.857
 20
1015.49
 11
977.857
 21
1015.49
  0
LINE
  8
1
  6
CONTINUOUS
  62
7
 10
987.857
 20
1020.49
 11
977.857
 21
1020.49
  0
LINE
  8
1
  6
CONTINUOUS
  62
7
 10
987.857
 20
1022.99
 11
988.197
 21
1022.99
  0
LINE
  8
1
  6
CONTINUOUS
  62
7
 10
987.857
 20
1012.99
 11
988.197
 21
1012.99
  0
LINE
  8
1
  6
CONTINUOUS
  62
7
 10
987.857
 20
1022.99
 11
987.857
 21
1012.99
  0
LINE
  8
1
  6
CONTINUOUS
  62
7
 10
917.857
 20
1013.99
 11
912.857
 21
1013.99
  0
LINE
  8
1
  6
CONTINUOUS
  62
7
 10
917.857
 20
1021.99
 11
912.857
 21
1021.99
  0
LINE
  8
1
  6
CONTINUOUS
  62
7
 10
943.857
 20
1006.88
 11
923.857
 21
1005.11
  0
LINE
  8
1
  6
CONTINUOUS
  62
7
 10
943.857
 20
1002.49
 11
923.857
 21
999.986
  0
LINE
  8
1
  6
CONTINUOUS
  62
7
 10
923.857
 20
1017.99
 11
943.857
 21
1017.99
  0
LINE
  8
1
  6
CONTINUOUS
  62
7
 10
943.857
 20
1033.49
 11
923.857
 21
1035.99
  0
LINE
  8
1
  6
CONTINUOUS
  62
7
 10
943.857
 20
1029.09
 11
923.857
 21
1030.86
  0
LINE
  8
1
  6
CONTINUOUS
  62
7
 10
917.857
 20
1042.99
 11
923.857
 21
1042.99
  0
LINE
  8
1
  6
CONTINUOUS
  62
7
 10
943.857
 20
1033.49
 11
943.857
 21
1002.49
  0
LINE
  8
1
  6
CONTINUOUS
  62
7
 10
917.857
 20
992.986
 11
923.857
 21
992.986
  0
LINE
  8
1
  6
CONTINUOUS
  62
7
 10
918.857
 20
1042.99
 11
918.857
 21
992.986
  0
LINE
  8
1
  6
CONTINUOUS
  62
7
 10
923.857
 20
1042.99
 11
923.857
 21
992.986
  0
LINE
  8
1
  6
CONTINUOUS
  62
7
 10
917.857
 20
1042.99
 11
917.857
 21
992.986
  0
LINE
  8
1
  6
CONTINUOUS
  62
7
 10
912.857
 20
1052.99
 11
912.857
 21
992.986
  0
LINE
  8
1
  6
CONTINUOUS
  62
7
 10
902.857
 20
1052.99
 11
912.857
 21
1052.99
  0
LINE
  8
1
  6
CONTINUOUS
  62
7
 10
902.857
 20
992.986
 11
902.857
 21
1052.99
  0
LINE
  8
1
  6
CONTINUOUS
  62
7
 10
912.857
 20
992.986
 11
902.857
 21
992.986
  0
LINE
  8
1
  6
CONTINUOUS
  62
7
 10
884.857
 20
992.986
 11
902.857
 21
992.986
  0
LINE
  8
1
  6
CONTINUOUS
  62
7
 10
884.857
 20
1002.99
 11
884.857
 21
992.986
  0
LINE
  8
1
  6
HIDDEN
  62
7
 10
865.857
 20
1002.99
 11
868.857
 21
1002.99
  0
LINE
  8
1
  6
HIDDEN
  62
7
 10
865.857
 20
1000.99
 11
865.857
 21
1002.99
  0
LINE
  8
1
  6
HIDDEN
  62
7
 10
858.857
 20
1000.99
 11
865.857
 21
1000.99
  0
LINE
  8
1
  6
CONTINUOUS
  62
7
 10
899.857
 20
1028.99
 11
902.857
 21
1028.99
  0
LINE
  8
1
  6
CONTINUOUS
  62
7
 10
899.857
 20
1035.99
 11
899.857
 21
1028.99
  0
LINE
  8
1
  6
CONTINUOUS
  62
7
 10
884.857
 20
1035.99
 11
899.857
 21
1035.99
  0
LINE
  8
1
  6
CONTINUOUS
  62
7
 10
884.857
 20
1045.99
 11
884.857
 21
1035.99
  0
LINE
  8
1
  6
HIDDEN
  62
7
 10
864.857
 20
1045.99
 11
868.857
 21
1045.99
  0
LINE
  8
1
  6
HIDDEN
  62
7
 10
864.857
 20
1035.99
 11
864.857
 21
1045.99
  0
LINE
  8
1
  6
HIDDEN
  62
7
 10
858.857
 20
1035.99
 11
864.857
 21
1035.99
  0
LINE
  8
1
  6
HIDDEN
  62
7
 10
858.857
 20
1000.99
 11
858.857
 21
1035.99
  0
LINE
  8
1
  6
CENTER
  62
7
 10
587.857
 20
1057.99
 11
874.857
 21
1057.99
  0
LINE
  8
1
  6
CENTER
  62
7
 10
587.857
 20
1115.49
 11
587.857
 21
1000.49
  0
LINE
  8
1
  6
CENTER
  62
7
 10
432.857
 20
1000.49
 11
707.857
 21
1000.49
  0
LINE
  8
1
  6
CENTER
  62
7
 10
432.857
 20
1115.49
 11
707.857
 21
1115.49
  0
LINE
  8
1
  6
CENTER
  62
7
 10
512.857
 20
1092.99
 11
512.857
 21
1022.99
  0
LINE
  8
1
  6
CENTER
  62
7
 10
547.857
 20
1057.99
 11
477.857
 21
1057.99
  0
LINE
  8
1
  6
HIDDEN
  62
7
 10
842.857
 20
1091.49
 11
844.857
 21
1091.49
  0
LINE
  8
1
  6
HIDDEN
  62
7
 10
842.857
 20
1024.49
 11
844.857
 21
1024.49
  0
LINE
  8
1
  6
HIDDEN
  62
7
 10
844.857
 20
1022.99
 11
852.857
 21
1022.99
  0
LINE
  8
1
  6
HIDDEN
  62
7
 10
844.857
 20
1092.99
 11
852.857
 21
1092.99
  0
LINE
  8
1
  6
HIDDEN
  62
7
 10
844.857
 20
1092.99
 11
844.857
 21
1022.99
  0
LINE
  8
1
  6
HIDDEN
  62
7
 10
842.857
 20
1091.49
 11
842.857
 21
1024.49
  0
LINE
  8
1
  6
HIDDEN
  62
7
 10
792.857
 20
1072.49
 11
792.857
 21
1043.49
  0
LINE
  8
1
  6
HIDDEN
  62
7
 10
852.857
 20
1092.99
 11
852.857
 21
1022.99
  0
LINE
  8
1
  6
HIDDEN
  62
7
 10
807.857
 20
1043.49
 11
792.857
 21
1043.49
  0
LINE
  8
1
  6
HIDDEN
  62
7
 10
807.857
 20
1072.49
 11
792.857
 21
1072.49
  0
LINE
  8
1
  6
HIDDEN
  62
7
 10
442.857
 20
1102.49
 11
574.857
 21
1102.49
  0
LINE
  8
1
  6
HIDDEN
  62
7
 10
442.857
 20
1128.49
 11
442.857
 21
1102.49
  0
LINE
  8
1
  6
HIDDEN
  62
7
 10
697.857
 20
1128.49
 11
442.857
 21
1128.49
  0
LINE
  8
1
  6
HIDDEN
  62
7
 10
697.857
 20
1102.49
 11
697.857
 21
1128.49
  0
LINE
  8
1
  6
HIDDEN
  62
7
 10
600.857
 20
1102.49
 11
697.857
 21
1102.49
  0
LINE
  8
1
  6
HIDDEN
  62
7
 10
697.857
 20
1013.49
 11
600.857
 21
1013.49
  0
LINE
  8
1
  6
HIDDEN
  62
7
 10
697.857
 20
987.486
 11
697.857
 21
1013.49
  0
LINE
  8
1
  6
HIDDEN
  62
7
 10
442.857
 20
987.486
 11
697.857
 21
987.486
  0
LINE
  8
1
  6
HIDDEN
  62
7
 10
442.857
 20
1013.49
 11
442.857
 21
987.486
  0
LINE
  8
1
  6
HIDDEN
  62
7
 10
574.857
 20
1013.49
 11
442.857
 21
1013.49
  0
LINE
  8
1
  6
HIDDEN
  62
7
 10
600.857
 20
1044.99
 11
600.857
 21
1013.49
  0
LINE
  8
1
  6
HIDDEN
  62
7
 10
792.857
 20
1044.99
 11
600.857
 21
1044.99
  0
LINE
  8
1
  6
HIDDEN
  62
7
 10
792.857
 20
1070.99
 11
600.857
 21
1070.99
  0
LINE
  8
1
  6
HIDDEN
  62
7
 10
574.857
 20
1102.49
 11
574.857
 21
1013.49
  0
LINE
  8
1
  6
HIDDEN
  62
7
 10
600.857
 20
1102.49
 11
600.857
 21
1070.99
  0
LINE
  8
1
  6
HIDDEN
  62
7
 10
807.857
 20
1177.99
 11
807.857
 21
937.986
  0
LINE
  8
1
  6
CONTINUOUS
  62
7
 10
977.857
 20
1177.99
 11
868.857
 21
1177.99
  0
LINE
  8
1
  6
CONTINUOUS
  62
7
 10
977.857
 20
937.986
 11
977.857
 21
1177.99
  0
LINE
  8
1
  6
HIDDEN
  62
7
 10
807.857
 20
937.986
 11
868.857
 21
937.986
  0
LINE
  8
1
  6
CONTINUOUS
  62
7
 10
967.857
 20
1167.99
 11
868.857
 21
1167.99
  0
LINE
  8
1
  6
CONTINUOUS
  62
7
 10
967.857
 20
947.986
 11
967.857
 21
1167.99
  0
LINE
  8
1
  6
HIDDEN
  62
7
 10
817.857
 20
947.986
 11
868.857
 21
947.986
  0
LINE
  8
1
  6
CONTINUOUS
  62
7
 10
967.857
 20
947.986
 11
977.857
 21
937.986
  0
LINE
  8
1
  6
CONTINUOUS
  62
7
 10
967.857
 20
1167.99
 11
977.857
 21
1177.99
  0
LINE
  8
1
  6
CONTINUOUS
  62
7
 10
353.107
 20
1239.99
 11
353.107
 21
875.986
  0
LINE
  8
1
  6
CONTINUOUS
  62
7
 10
318.107
 20
1239.99
 11
318.107
 21
875.986
  0
LINE
  8
1
  6
CONTINUOUS
  62
7
 10
318.107
 20
1239.99
 11
353.107
 21
1239.99
  0
LINE
  8
1
  6
CONTINUOUS
  62
7
 10
353.107
 20
1059.49
 11
318.107
 21
1059.49
  0
LINE
  8
1
  6
CONTINUOUS
  62
7
 10
353.107
 20
1063.49
 11
318.107
 21
1063.49
  0
LINE
  8
1
  6
CONTINUOUS
  62
7
 10
353.107
 20
1066.49
 11
318.107
 21
1066.49
  0
LINE
  8
1
  6
CONTINUOUS
  62
7
 10
353.107
 20
1070.49
 11
318.107
 21
1070.49
  0
LINE
  8
1
  6
CONTINUOUS
  62
7
 10
353.107
 20
1077.49
 11
318.107
 21
1077.49
  0
LINE
  8
1
  6
CONTINUOUS
  62
7
 10
353.107
 20
1073.49
 11
318.107
 21
1073.49
  0
LINE
  8
1
  6
CONTINUOUS
  62
7
 10
353.107
 20
1087.49
 11
318.107
 21
1087.49
  0
LINE
  8
1
  6
CONTINUOUS
  62
7
 10
353.107
 20
1091.49
 11
318.107
 21
1091.49
  0
LINE
  8
1
  6
CONTINUOUS
  62
7
 10
353.107
 20
1084.49
 11
318.107
 21
1084.49
  0
LINE
  8
1
  6
CONTINUOUS
  62
7
 10
353.107
 20
1080.49
 11
318.107
 21
1080.49
  0
LINE
  8
1
  6
CONTINUOUS
  62
7
 10
353.107
 20
1101.49
 11
318.107
 21
1101.49
  0
LINE
  8
1
  6
CONTINUOUS
  62
7
 10
353.107
 20
1105.49
 11
318.107
 21
1105.49
  0
LINE
  8
1
  6
CONTINUOUS
  62
7
 10
353.107
 20
1098.49
 11
318.107
 21
1098.49
  0
LINE
  8
1
  6
CONTINUOUS
  62
7
 10
353.107
 20
1094.49
 11
318.107
 21
1094.49
  0
LINE
  8
1
  6
CONTINUOUS
  62
7
 10
353.107
 20
1115.49
 11
318.107
 21
1115.49
  0
LINE
  8
1
  6
CONTINUOUS
  62
7
 10
353.107
 20
1119.49
 11
318.107
 21
1119.49
  0
LINE
  8
1
  6
CONTINUOUS
  62
7
 10
353.107
 20
1112.49
 11
318.107
 21
1112.49
  0
LINE
  8
1
  6
CONTINUOUS
  62
7
 10
353.107
 20
1108.49
 11
318.107
 21
1108.49
  0
LINE
  8
1
  6
CONTINUOUS
  62
7
 10
353.107
 20
1129.49
 11
318.107
 21
1129.49
  0
LINE
  8
1
  6
CONTINUOUS
  62
7
 10
353.107
 20
1133.49
 11
318.107
 21
1133.49
  0
LINE
  8
1
  6
CONTINUOUS
  62
7
 10
353.107
 20
1126.49
 11
318.107
 21
1126.49
  0
LINE
  8
1
  6
CONTINUOUS
  62
7
 10
353.107
 20
1122.49
 11
318.107
 21
1122.49
  0
LINE
  8
1
  6
CONTINUOUS
  62
7
 10
353.107
 20
1143.49
 11
318.107
 21
1143.49
  0
LINE
  8
1
  6
CONTINUOUS
  62
7
 10
353.107
 20
1147.49
 11
318.107
 21
1147.49
  0
LINE
  8
1
  6
CONTINUOUS
  62
7
 10
353.107
 20
1140.49
 11
318.107
 21
1140.49
  0
LINE
  8
1
  6
CONTINUOUS
  62
7
 10
353.107
 20
1136.49
 11
318.107
 21
1136.49
  0
LINE
  8
1
  6
CONTINUOUS
  62
7
 10
353.107
 20
1157.49
 11
318.107
 21
1157.49
  0
LINE
  8
1
  6
CONTINUOUS
  62
7
 10
353.107
 20
1161.49
 11
318.107
 21
1161.49
  0
LINE
  8
1
  6
CONTINUOUS
  62
7
 10
353.107
 20
1154.49
 11
318.107
 21
1154.49
  0
LINE
  8
1
  6
CONTINUOUS
  62
7
 10
353.107
 20
1150.49
 11
318.107
 21
1150.49
  0
LINE
  8
1
  6
CONTINUOUS
  62
7
 10
353.107
 20
1171.49
 11
318.107
 21
1171.49
  0
LINE
  8
1
  6
CONTINUOUS
  62
7
 10
353.107
 20
1175.49
 11
318.107
 21
1175.49
  0
LINE
  8
1
  6
CONTINUOUS
  62
7
 10
353.107
 20
1168.49
 11
318.107
 21
1168.49
  0
LINE
  8
1
  6
CONTINUOUS
  62
7
 10
353.107
 20
1164.49
 11
318.107
 21
1164.49
  0
LINE
  8
1
  6
CONTINUOUS
  62
7
 10
353.107
 20
1185.49
 11
318.107
 21
1185.49
  0
LINE
  8
1
  6
CONTINUOUS
  62
7
 10
353.107
 20
1189.49
 11
318.107
 21
1189.49
  0
LINE
  8
1
  6
CONTINUOUS
  62
7
 10
353.107
 20
1182.49
 11
318.107
 21
1182.49
  0
LINE
  8
1
  6
CONTINUOUS
  62
7
 10
353.107
 20
1178.49
 11
318.107
 21
1178.49
  0
LINE
  8
1
  6
CONTINUOUS
  62
7
 10
353.107
 20
1199.49
 11
318.107
 21
1199.49
  0
LINE
  8
1
  6
CONTINUOUS
  62
7
 10
353.107
 20
1203.49
 11
318.107
 21
1203.49
  0
LINE
  8
1
  6
CONTINUOUS
  62
7
 10
353.107
 20
1196.49
 11
318.107
 21
1196.49
  0
LINE
  8
1
  6
CONTINUOUS
  62
7
 10
353.107
 20
1192.49
 11
318.107
 21
1192.49
  0
LINE
  8
1
  6
CONTINUOUS
  62
7
 10
353.107
 20
1213.49
 11
318.107
 21
1213.49
  0
LINE
  8
1
  6
CONTINUOUS
  62
7
 10
353.107
 20
1217.49
 11
318.107
 21
1217.49
  0
LINE
  8
1
  6
CONTINUOUS
  62
7
 10
353.107
 20
1210.49
 11
318.107
 21
1210.49
  0
LINE
  8
1
  6
CONTINUOUS
  62
7
 10
353.107
 20
1206.49
 11
318.107
 21
1206.49
  0
LINE
  8
1
  6
CONTINUOUS
  62
7
 10
353.107
 20
1227.49
 11
318.107
 21
1227.49
  0
LINE
  8
1
  6
CONTINUOUS
  62
7
 10
353.107
 20
1231.49
 11
318.107
 21
1231.49
  0
LINE
  8
1
  6
CONTINUOUS
  62
7
 10
353.107
 20
1224.49
 11
318.107
 21
1224.49
  0
LINE
  8
1
  6
CONTINUOUS
  62
7
 10
353.107
 20
1220.49
 11
318.107
 21
1220.49
  0
LINE
  8
1
  6
CONTINUOUS
  62
7
 10
353.107
 20
1234.49
 11
318.107
 21
1234.49
  0
LINE
  8
1
  6
CONTINUOUS
  62
7
 10
353.107
 20
881.486
 11
318.107
 21
881.486
  0
LINE
  8
1
  6
CONTINUOUS
  62
7
 10
353.107
 20
895.486
 11
318.107
 21
895.486
  0
LINE
  8
1
  6
CONTINUOUS
  62
7
 10
353.107
 20
891.486
 11
318.107
 21
891.486
  0
LINE
  8
1
  6
CONTINUOUS
  62
7
 10
353.107
 20
884.486
 11
318.107
 21
884.486
  0
LINE
  8
1
  6
CONTINUOUS
  62
7
 10
353.107
 20
888.486
 11
318.107
 21
888.486
  0
LINE
  8
1
  6
CONTINUOUS
  62
7
 10
353.107
 20
909.486
 11
318.107
 21
909.486
  0
LINE
  8
1
  6
CONTINUOUS
  62
7
 10
353.107
 20
905.486
 11
318.107
 21
905.486
  0
LINE
  8
1
  6
CONTINUOUS
  62
7
 10
353.107
 20
898.486
 11
318.107
 21
898.486
  0
LINE
  8
1
  6
CONTINUOUS
  62
7
 10
353.107
 20
902.486
 11
318.107
 21
902.486
  0
LINE
  8
1
  6
CONTINUOUS
  62
7
 10
353.107
 20
923.486
 11
318.107
 21
923.486
  0
LINE
  8
1
  6
CONTINUOUS
  62
7
 10
353.107
 20
919.486
 11
318.107
 21
919.486
  0
LINE
  8
1
  6
CONTINUOUS
  62
7
 10
353.107
 20
912.486
 11
318.107
 21
912.486
  0
LINE
  8
1
  6
CONTINUOUS
  62
7
 10
353.107
 20
916.486
 11
318.107
 21
916.486
  0
LINE
  8
1
  6
CONTINUOUS
  62
7
 10
353.107
 20
937.486
 11
318.107
 21
937.486
  0
LINE
  8
1
  6
CONTINUOUS
  62
7
 10
353.107
 20
933.486
 11
318.107
 21
933.486
  0
LINE
  8
1
  6
CONTINUOUS
  62
7
 10
353.107
 20
926.486
 11
318.107
 21
926.486
  0
LINE
  8
1
  6
CONTINUOUS
  62
7
 10
353.107
 20
930.486
 11
318.107
 21
930.486
  0
LINE
  8
1
  6
CONTINUOUS
  62
7
 10
353.107
 20
951.486
 11
318.107
 21
951.486
  0
LINE
  8
1
  6
CONTINUOUS
  62
7
 10
353.107
 20
947.486
 11
318.107
 21
947.486
  0
LINE
  8
1
  6
CONTINUOUS
  62
7
 10
353.107
 20
940.486
 11
318.107
 21
940.486
  0
LINE
  8
1
  6
CONTINUOUS
  62
7
 10
353.107
 20
944.486
 11
318.107
 21
944.486
  0
LINE
  8
1
  6
CONTINUOUS
  62
7
 10
353.107
 20
965.486
 11
318.107
 21
965.486
  0
LINE
  8
1
  6
CONTINUOUS
  62
7
 10
353.107
 20
961.486
 11
318.107
 21
961.486
  0
LINE
  8
1
  6
CONTINUOUS
  62
7
 10
353.107
 20
954.486
 11
318.107
 21
954.486
  0
LINE
  8
1
  6
CONTINUOUS
  62
7
 10
353.107
 20
958.486
 11
318.107
 21
958.486
  0
LINE
  8
1
  6
CONTINUOUS
  62
7
 10
353.107
 20
979.486
 11
318.107
 21
979.486
  0
LINE
  8
1
  6
CONTINUOUS
  62
7
 10
353.107
 20
975.486
 11
318.107
 21
975.486
  0
LINE
  8
1
  6
CONTINUOUS
  62
7
 10
353.107
 20
968.486
 11
318.107
 21
968.486
  0
LINE
  8
1
  6
CONTINUOUS
  62
7
 10
353.107
 20
972.486
 11
318.107
 21
972.486
  0
LINE
  8
1
  6
CONTINUOUS
  62
7
 10
353.107
 20
993.486
 11
318.107
 21
993.486
  0
LINE
  8
1
  6
CONTINUOUS
  62
7
 10
353.107
 20
989.486
 11
318.107
 21
989.486
  0
LINE
  8
1
  6
CONTINUOUS
  62
7
 10
353.107
 20
982.486
 11
318.107
 21
982.486
  0
LINE
  8
1
  6
CONTINUOUS
  62
7
 10
353.107
 20
986.486
 11
318.107
 21
986.486
  0
LINE
  8
1
  6
CONTINUOUS
  62
7
 10
353.107
 20
1007.49
 11
318.107
 21
1007.49
  0
LINE
  8
1
  6
CONTINUOUS
  62
7
 10
353.107
 20
1003.49
 11
318.107
 21
1003.49
  0
LINE
  8
1
  6
CONTINUOUS
  62
7
 10
353.107
 20
996.486
 11
318.107
 21
996.486
  0
LINE
  8
1
  6
CONTINUOUS
  62
7
 10
353.107
 20
1000.49
 11
318.107
 21
1000.49
  0
LINE
  8
1
  6
CONTINUOUS
  62
7
 10
353.107
 20
1021.49
 11
318.107
 21
1021.49
  0
LINE
  8
1
  6
CONTINUOUS
  62
7
 10
353.107
 20
1017.49
 11
318.107
 21
1017.49
  0
LINE
  8
1
  6
CONTINUOUS
  62
7
 10
353.107
 20
1010.49
 11
318.107
 21
1010.49
  0
LINE
  8
1
  6
CONTINUOUS
  62
7
 10
353.107
 20
1014.49
 11
318.107
 21
1014.49
  0
LINE
  8
1
  6
CONTINUOUS
  62
7
 10
353.107
 20
1035.49
 11
318.107
 21
1035.49
  0
LINE
  8
1
  6
CONTINUOUS
  62
7
 10
353.107
 20
1031.49
 11
318.107
 21
1031.49
  0
LINE
  8
1
  6
CONTINUOUS
  62
7
 10
353.107
 20
1024.49
 11
318.107
 21
1024.49
  0
LINE
  8
1
  6
CONTINUOUS
  62
7
 10
353.107
 20
1028.49
 11
318.107
 21
1028.49
  0
LINE
  8
1
  6
CONTINUOUS
  62
7
 10
353.107
 20
1042.49
 11
318.107
 21
1042.49
  0
LINE
  8
1
  6
CONTINUOUS
  62
7
 10
353.107
 20
1038.49
 11
318.107
 21
1038.49
  0
LINE
  8
1
  6
CONTINUOUS
  62
7
 10
353.107
 20
1045.49
 11
318.107
 21
1045.49
  0
LINE
  8
1
  6
CONTINUOUS
  62
7
 10
353.107
 20
1049.49
 11
318.107
 21
1049.49
  0
LINE
  8
1
  6
CONTINUOUS
  62
7
 10
353.107
 20
1052.49
 11
318.107
 21
1052.49
  0
LINE
  8
1
  6
CONTINUOUS
  62
7
 10
353.107
 20
1056.49
 11
318.107
 21
1056.49
  0
LINE
  8
1
  6
CONTINUOUS
  62
7
 10
318.107
 20
875.986
 11
353.107
 21
875.986
  0
LINE
  8
1
  6
CONTINUOUS
  62
7
 10
845.607
 20
875.986
 11
810.607
 21
875.986
  0
LINE
  8
1
  6
CONTINUOUS
  62
7
 10
810.607
 20
1056.49
 11
845.607
 21
1056.49
  0
LINE
  8
1
  6
CONTINUOUS
  62
7
 10
810.607
 20
1052.49
 11
845.607
 21
1052.49
  0
LINE
  8
1
  6
CONTINUOUS
  62
7
 10
810.607
 20
1049.49
 11
845.607
 21
1049.49
  0
LINE
  8
1
  6
CONTINUOUS
  62
7
 10
810.607
 20
1045.49
 11
845.607
 21
1045.49
  0
LINE
  8
1
  6
CONTINUOUS
  62
7
 10
810.607
 20
1038.49
 11
845.607
 21
1038.49
  0
LINE
  8
1
  6
CONTINUOUS
  62
7
 10
810.607
 20
1042.49
 11
845.607
 21
1042.49
  0
LINE
  8
1
  6
CONTINUOUS
  62
7
 10
810.607
 20
1028.49
 11
845.607
 21
1028.49
  0
LINE
  8
1
  6
CONTINUOUS
  62
7
 10
810.607
 20
1024.49
 11
845.607
 21
1024.49
  0
LINE
  8
1
  6
CONTINUOUS
  62
7
 10
810.607
 20
1031.49
 11
845.607
 21
1031.49
  0
LINE
  8
1
  6
CONTINUOUS
  62
7
 10
810.607
 20
1035.49
 11
845.607
 21
1035.49
  0
LINE
  8
1
  6
CONTINUOUS
  62
7
 10
810.607
 20
1014.49
 11
845.607
 21
1014.49
  0
LINE
  8
1
  6
CONTINUOUS
  62
7
 10
810.607
 20
1010.49
 11
845.607
 21
1010.49
  0
LINE
  8
1
  6
CONTINUOUS
  62
7
 10
810.607
 20
1017.49
 11
845.607
 21
1017.49
  0
LINE
  8
1
  6
CONTINUOUS
  62
7
 10
810.607
 20
1021.49
 11
845.607
 21
1021.49
  0
LINE
  8
1
  6
CONTINUOUS
  62
7
 10
810.607
 20
1000.49
 11
845.607
 21
1000.49
  0
LINE
  8
1
  6
CONTINUOUS
  62
7
 10
810.607
 20
996.486
 11
845.607
 21
996.486
  0
LINE
  8
1
  6
CONTINUOUS
  62
7
 10
810.607
 20
1003.49
 11
845.607
 21
1003.49
  0
LINE
  8
1
  6
CONTINUOUS
  62
7
 10
810.607
 20
1007.49
 11
845.607
 21
1007.49
  0
LINE
  8
1
  6
CONTINUOUS
  62
7
 10
810.607
 20
986.486
 11
845.607
 21
986.486
  0
LINE
  8
1
  6
CONTINUOUS
  62
7
 10
810.607
 20
982.486
 11
845.607
 21
982.486
  0
LINE
  8
1
  6
CONTINUOUS
  62
7
 10
810.607
 20
989.486
 11
845.607
 21
989.486
  0
LINE
  8
1
  6
CONTINUOUS
  62
7
 10
810.607
 20
993.486
 11
845.607
 21
993.486
  0
LINE
  8
1
  6
CONTINUOUS
  62
7
 10
810.607
 20
972.486
 11
845.607
 21
972.486
  0
LINE
  8
1
  6
CONTINUOUS
  62
7
 10
810.607
 20
968.486
 11
845.607
 21
968.486
  0
LINE
  8
1
  6
CONTINUOUS
  62
7
 10
810.607
 20
975.486
 11
845.607
 21
975.486
  0
LINE
  8
1
  6
CONTINUOUS
  62
7
 10
810.607
 20
979.486
 11
845.607
 21
979.486
  0
LINE
  8
1
  6
CONTINUOUS
  62
7
 10
810.607
 20
958.486
 11
845.607
 21
958.486
  0
LINE
  8
1
  6
CONTINUOUS
  62
7
 10
810.607
 20
954.486
 11
845.607
 21
954.486
  0
LINE
  8
1
  6
CONTINUOUS
  62
7
 10
810.607
 20
961.486
 11
845.607
 21
961.486
  0
LINE
  8
1
  6
CONTINUOUS
  62
7
 10
810.607
 20
965.486
 11
845.607
 21
965.486
  0
LINE
  8
1
  6
CONTINUOUS
  62
7
 10
810.607
 20
944.486
 11
845.607
 21
944.486
  0
LINE
  8
1
  6
CONTINUOUS
  62
7
 10
810.607
 20
940.486
 11
845.607
 21
940.486
  0
LINE
  8
1
  6
CONTINUOUS
  62
7
 10
810.607
 20
947.486
 11
845.607
 21
947.486
  0
LINE
  8
1
  6
CONTINUOUS
  62
7
 10
810.607
 20
951.486
 11
845.607
 21
951.486
  0
LINE
  8
1
  6
CONTINUOUS
  62
7
 10
810.607
 20
930.486
 11
845.607
 21
930.486
  0
LINE
  8
1
  6
CONTINUOUS
  62
7
 10
810.607
 20
926.486
 11
845.607
 21
926.486
  0
LINE
  8
1
  6
CONTINUOUS
  62
7
 10
810.607
 20
933.486
 11
845.607
 21
933.486
  0
LINE
  8
1
  6
CONTINUOUS
  62
7
 10
810.607
 20
937.486
 11
845.607
 21
937.486
  0
LINE
  8
1
  6
CONTINUOUS
  62
7
 10
810.607
 20
916.486
 11
845.607
 21
916.486
  0
LINE
  8
1
  6
CONTINUOUS
  62
7
 10
810.607
 20
912.486
 11
845.607
 21
912.486
  0
LINE
  8
1
  6
CONTINUOUS
  62
7
 10
810.607
 20
919.486
 11
845.607
 21
919.486
  0
LINE
  8
1
  6
CONTINUOUS
  62
7
 10
810.607
 20
923.486
 11
845.607
 21
923.486
  0
LINE
  8
1
  6
CONTINUOUS
  62
7
 10
810.607
 20
902.486
 11
845.607
 21
902.486
  0
LINE
  8
1
  6
CONTINUOUS
  62
7
 10
810.607
 20
898.486
 11
845.607
 21
898.486
  0
LINE
  8
1
  6
CONTINUOUS
  62
7
 10
810.607
 20
905.486
 11
845.607
 21
905.486
  0
LINE
  8
1
  6
CONTINUOUS
  62
7
 10
810.607
 20
909.486
 11
845.607
 21
909.486
  0
LINE
  8
1
  6
CONTINUOUS
  62
7
 10
810.607
 20
888.486
 11
845.607
 21
888.486
  0
LINE
  8
1
  6
CONTINUOUS
  62
7
 10
810.607
 20
884.486
 11
845.607
 21
884.486
  0
LINE
  8
1
  6
CONTINUOUS
  62
7
 10
810.607
 20
891.486
 11
845.607
 21
891.486
  0
LINE
  8
1
  6
CONTINUOUS
  62
7
 10
810.607
 20
895.486
 11
845.607
 21
895.486
  0
LINE
  8
1
  6
CONTINUOUS
  62
7
 10
810.607
 20
881.486
 11
845.607
 21
881.486
  0
LINE
  8
1
  6
CONTINUOUS
  62
7
 10
810.607
 20
1234.49
 11
845.607
 21
1234.49
  0
LINE
  8
1
  6
CONTINUOUS
  62
7
 10
810.607
 20
1220.49
 11
845.607
 21
1220.49
  0
LINE
  8
1
  6
CONTINUOUS
  62
7
 10
810.607
 20
1224.49
 11
845.607
 21
1224.49
  0
LINE
  8
1
  6
CONTINUOUS
  62
7
 10
810.607
 20
1231.49
 11
845.607
 21
1231.49
  0
LINE
  8
1
  6
CONTINUOUS
  62
7
 10
810.607
 20
1227.49
 11
845.607
 21
1227.49
  0
LINE
  8
1
  6
CONTINUOUS
  62
7
 10
810.607
 20
1206.49
 11
845.607
 21
1206.49
  0
LINE
  8
1
  6
CONTINUOUS
  62
7
 10
810.607
 20
1210.49
 11
845.607
 21
1210.49
  0
LINE
  8
1
  6
CONTINUOUS
  62
7
 10
810.607
 20
1217.49
 11
845.607
 21
1217.49
  0
LINE
  8
1
  6
CONTINUOUS
  62
7
 10
810.607
 20
1213.49
 11
845.607
 21
1213.49
  0
LINE
  8
1
  6
CONTINUOUS
  62
7
 10
810.607
 20
1192.49
 11
845.607
 21
1192.49
  0
LINE
  8
1
  6
CONTINUOUS
  62
7
 10
810.607
 20
1196.49
 11
845.607
 21
1196.49
  0
LINE
  8
1
  6
CONTINUOUS
  62
7
 10
810.607
 20
1203.49
 11
845.607
 21
1203.49
  0
LINE
  8
1
  6
CONTINUOUS
  62
7
 10
810.607
 20
1199.49
 11
845.607
 21
1199.49
  0
LINE
  8
1
  6
CONTINUOUS
  62
7
 10
810.607
 20
1178.49
 11
845.607
 21
1178.49
  0
LINE
  8
1
  6
CONTINUOUS
  62
7
 10
810.607
 20
1182.49
 11
845.607
 21
1182.49
  0
LINE
  8
1
  6
CONTINUOUS
  62
7
 10
810.607
 20
1189.49
 11
845.607
 21
1189.49
  0
LINE
  8
1
  6
CONTINUOUS
  62
7
 10
810.607
 20
1185.49
 11
845.607
 21
1185.49
  0
LINE
  8
1
  6
CONTINUOUS
  62
7
 10
810.607
 20
1164.49
 11
845.607
 21
1164.49
  0
LINE
  8
1
  6
CONTINUOUS
  62
7
 10
810.607
 20
1168.49
 11
845.607
 21
1168.49
  0
LINE
  8
1
  6
CONTINUOUS
  62
7
 10
810.607
 20
1175.49
 11
845.607
 21
1175.49
  0
LINE
  8
1
  6
CONTINUOUS
  62
7
 10
810.607
 20
1171.49
 11
845.607
 21
1171.49
  0
LINE
  8
1
  6
CONTINUOUS
  62
7
 10
810.607
 20
1150.49
 11
845.607
 21
1150.49
  0
LINE
  8
1
  6
CONTINUOUS
  62
7
 10
810.607
 20
1154.49
 11
845.607
 21
1154.49
  0
LINE
  8
1
  6
CONTINUOUS
  62
7
 10
810.607
 20
1161.49
 11
845.607
 21
1161.49
  0
LINE
  8
1
  6
CONTINUOUS
  62
7
 10
810.607
 20
1157.49
 11
845.607
 21
1157.49
  0
LINE
  8
1
  6
CONTINUOUS
  62
7
 10
810.607
 20
1136.49
 11
845.607
 21
1136.49
  0
LINE
  8
1
  6
CONTINUOUS
  62
7
 10
810.607
 20
1140.49
 11
845.607
 21
1140.49
  0
LINE
  8
1
  6
CONTINUOUS
  62
7
 10
810.607
 20
1147.49
 11
845.607
 21
1147.49
  0
LINE
  8
1
  6
CONTINUOUS
  62
7
 10
810.607
 20
1143.49
 11
845.607
 21
1143.49
  0
LINE
  8
1
  6
CONTINUOUS
  62
7
 10
810.607
 20
1122.49
 11
845.607
 21
1122.49
  0
LINE
  8
1
  6
CONTINUOUS
  62
7
 10
810.607
 20
1126.49
 11
845.607
 21
1126.49
  0
LINE
  8
1
  6
CONTINUOUS
  62
7
 10
810.607
 20
1133.49
 11
845.607
 21
1133.49
  0
LINE
  8
1
  6
CONTINUOUS
  62
7
 10
810.607
 20
1129.49
 11
845.607
 21
1129.49
  0
LINE
  8
1
  6
CONTINUOUS
  62
7
 10
810.607
 20
1108.49
 11
845.607
 21
1108.49
  0
LINE
  8
1
  6
CONTINUOUS
  62
7
 10
810.607
 20
1112.49
 11
845.607
 21
1112.49
  0
LINE
  8
1
  6
CONTINUOUS
  62
7
 10
810.607
 20
1119.49
 11
845.607
 21
1119.49
  0
LINE
  8
1
  6
CONTINUOUS
  62
7
 10
810.607
 20
1115.49
 11
845.607
 21
1115.49
  0
LINE
  8
1
  6
CONTINUOUS
  62
7
 10
810.607
 20
1094.49
 11
845.607
 21
1094.49
  0
LINE
  8
1
  6
CONTINUOUS
  62
7
 10
810.607
 20
1098.49
 11
845.607
 21
1098.49
  0
LINE
  8
1
  6
CONTINUOUS
  62
7
 10
810.607
 20
1105.49
 11
845.607
 21
1105.49
  0
LINE
  8
1
  6
CONTINUOUS
  62
7
 10
810.607
 20
1101.49
 11
845.607
 21
1101.49
  0
LINE
  8
1
  6
CONTINUOUS
  62
7
 10
810.607
 20
1080.49
 11
845.607
 21
1080.49
  0
LINE
  8
1
  6
CONTINUOUS
  62
7
 10
810.607
 20
1084.49
 11
845.607
 21
1084.49
  0
LINE
  8
1
  6
CONTINUOUS
  62
7
 10
810.607
 20
1091.49
 11
845.607
 21
1091.49
  0
LINE
  8
1
  6
CONTINUOUS
  62
7
 10
810.607
 20
1087.49
 11
845.607
 21
1087.49
  0
LINE
  8
1
  6
CONTINUOUS
  62
7
 10
810.607
 20
1073.49
 11
845.607
 21
1073.49
  0
LINE
  8
1
  6
CONTINUOUS
  62
7
 10
810.607
 20
1077.49
 11
845.607
 21
1077.49
  0
LINE
  8
1
  6
CONTINUOUS
  62
7
 10
810.607
 20
1070.49
 11
845.607
 21
1070.49
  0
LINE
  8
1
  6
CONTINUOUS
  62
7
 10
810.607
 20
1066.49
 11
845.607
 21
1066.49
  0
LINE
  8
1
  6
CONTINUOUS
  62
7
 10
810.607
 20
1063.49
 11
845.607
 21
1063.49
  0
LINE
  8
1
  6
CONTINUOUS
  62
7
 10
810.607
 20
1059.49
 11
845.607
 21
1059.49
  0
LINE
  8
1
  6
CONTINUOUS
  62
7
 10
845.607
 20
1239.99
 11
810.607
 21
1239.99
  0
LINE
  8
1
  6
CONTINUOUS
  62
7
 10
845.607
 20
1239.99
 11
845.607
 21
875.986
  0
LINE
  8
1
  6
CONTINUOUS
  62
7
 10
810.607
 20
1239.99
 11
810.607
 21
875.986
  0
LINE
  8
1
  6
CONTINUOUS
  62
7
 10
363.357
 20
997.986
 11
363.357
 21
887.986
  0
LINE
  8
1
  6
CONTINUOUS
  62
7
 10
379.357
 20
1112.99
 11
379.357
 21
1002.99
  0
LINE
  8
1
  6
CONTINUOUS
  62
7
 10
354.357
 20
1117.99
 11
374.357
 21
1117.99
  0
LINE
  8
1
  6
CONTINUOUS
  62
7
 10
374.357
 20
997.986
 11
354.357
 21
997.986
  0
LINE
  8
1
  6
CONTINUOUS
  62
7
 10
809.357
 20
1237.99
 11
809.357
 21
877.986
  0
LINE
  8
1
  6
CONTINUOUS
  62
7
 10
354.357
 20
1237.99
 11
809.357
 21
1237.99
  0
LINE
  8
1
  6
CONTINUOUS
  62
7
 10
354.357
 20
877.986
 11
354.357
 21
997.986
  0
LINE
  8
1
  6
CONTINUOUS
  62
7
 10
809.357
 20
877.986
 11
354.357
 21
877.986
  0
LINE
  8
1
  6
CONTINUOUS
  62
7
 10
363.357
 20
1227.99
 11
363.357
 21
1117.99
  0
LINE
  8
1
  6
CONTINUOUS
  62
7
 10
363.357
 20
1227.99
 11
800.357
 21
1227.99
  0
LINE
  8
1
  6
CONTINUOUS
  62
7
 10
800.357
 20
887.986
 11
800.357
 21
1227.99
  0
LINE
  8
1
  6
CONTINUOUS
  62
7
 10
800.357
 20
887.986
 11
363.357
 21
887.986
  0
LINE
  8
1
  6
CONTINUOUS
  62
7
 10
846.857
 20
1240.99
 11
846.857
 21
874.986
  0
LINE
  8
1
  6
CONTINUOUS
  62
7
 10
316.857
 20
1240.99
 11
316.857
 21
874.986
  0
LINE
  8
1
  6
CONTINUOUS
  62
7
 10
868.857
 20
1262.99
 11
868.857
 21
852.986
  0
LINE
  8
1
  6
CONTINUOUS
  62
7
 10
294.857
 20
1262.99
 11
868.857
 21
1262.99
  0
LINE
  8
1
  6
CONTINUOUS
  62
7
 10
294.857
 20
852.986
 11
294.857
 21
1262.99
  0
LINE
  8
1
  6
CONTINUOUS
  62
7
 10
868.857
 20
852.986
 11
294.857
 21
852.986
  0
LINE
  8
1
  6
CONTINUOUS
  62
7
 10
862.857
 20
1256.99
 11
862.857
 21
858.986
  0
LINE
  8
1
  6
CONTINUOUS
  62
7
 10
300.857
 20
1256.99
 11
862.857
 21
1256.99
  0
LINE
  8
1
  6
CONTINUOUS
  62
7
 10
300.857
 20
858.986
 11
300.857
 21
1256.99
  0
LINE
  8
1
  6
CONTINUOUS
  62
7
 10
862.857
 20
858.986
 11
300.857
 21
858.986
  0
LINE
  8
1
  6
CONTINUOUS
  62
7
 10
316.857
 20
1240.99
 11
846.857
 21
1240.99
  0
LINE
  8
1
  6
CONTINUOUS
  62
7
 10
846.857
 20
874.986
 11
316.857
 21
874.986
  0
LINE
  8
1
  6
CONTINUOUS
  62
3
 10
1941.21
 20
944.07
 11
1591.21
 21
944.07
  0
LINE
  8
1
  6
CONTINUOUS
  62
3
 10
1591.21
 20
944.07
 11
1591.21
 21
744.07
  0
LINE
  8
1
  6
CONTINUOUS
  62
3
 10
1591.21
 20
744.07
 11
1941.21
 21
744.07
  0
LINE
  8
1
  6
CONTINUOUS
  62
3
 10
1941.21
 20
744.07
 11
1941.21
 21
944.07
  0
LINE
  8
1
  6
PHANTOM
  62
7
 10
2039.66
 20
659.411
 11
1467.61
 21
659.411
  0
CIRCLE
  8
11
  6
CONTINUOUS
  62
3
 10
-101661
 20
-19490
 40
175
  0
CIRCLE
  8
11
  6
CONTINUOUS
  62
3
 10
-95161.2
 20
-19490
 40
175
  0
CIRCLE
  8
11
  6
CONTINUOUS
  62
3
 10
-101661
 20
-16240
 40
175
  0
CIRCLE
  8
11
  6
CONTINUOUS
  62
3
 10
-95161.2
 20
-16240
 40
175
  0
CIRCLE
  8
11
  6
CONTINUOUS
  62
3
 10
-101661
 20
-9740.04
 40
175
  0
CIRCLE
  8
11
  6
CONTINUOUS
  62
3
 10
-101661
 20
-12990
 40
175
  0
CIRCLE
  8
11
  6
CONTINUOUS
  62
3
 10
-95161.2
 20
-12990
 40
175
  0
CIRCLE
  8
11
  6
CONTINUOUS
  62
3
 10
-95161.2
 20
-9740.04
 40
175
  0
CIRCLE
  8
11
  6
CONTINUOUS
  62
4
 10
-66411.2
 20
-13740
 40
175
  0
CIRCLE
  8
11
  6
CONTINUOUS
  62
4
 10
-81411.2
 20
-13740
 40
175
  0
CIRCLE
  8
11
  6
CONTINUOUS
  62
4
 10
-58911.2
 20
-13740
 40
175
  0
CIRCLE
  8
11
  6
CONTINUOUS
  62
4
 10
-73911.2
 20
-13740
 40
175
  0
ARC
  8
1
  6
CONTINUOUS
  62
7
 10
1876.15
 20
944.07
 40
1.25
 50
270
 51
450
  0
ARC
  8
1
  6
CONTINUOUS
  62
7
 10
1876.15
 20
944.07
 40
1.25
 50
90
 51
270
  0
ARC
  8
1
  6
CONTINUOUS
  62
7
 10
1876.15
 20
744.07
 40
1.25
 50
90
 51
270
  0
ARC
  8
1
  6
CONTINUOUS
  62
7
 10
1876.15
 20
744.07
 40
1.25
 50
270
 51
450
  0
ARC
  8
1
  6
CONTINUOUS
  62
7
 10
1591.21
 20
795.138
 40
1.25
 50
0
 51
180
  0
ARC
  8
1
  6
CONTINUOUS
  62
7
 10
1591.21
 20
795.138
 40
1.25
 50
180
 51
360
  0
ARC
  8
1
  6
CONTINUOUS
  62
7
 10
1941.21
 20
795.138
 40
1.25
 50
180
 51
360
  0
ARC
  8
1
  6
CONTINUOUS
  62
7
 10
1941.21
 20
795.138
 40
1.25
 50
0
 51
180
  0
ARC
  8
1
  6
CONTINUOUS
  62
7
 10
1392.27
 20
435.461
 40
1.5
 50
180
 51
360
  0
ARC
  8
1
  6
CONTINUOUS
  62
7
 10
1392.27
 20
462.461
 40
1.5
 50
0
 51
180
  0
ARC
  8
1
  6
CONTINUOUS
  62
7
 10
1399.27
 20
462.461
 40
1.5
 50
0
 51
180
  0
ARC
  8
1
  6
CONTINUOUS
  62
7
 10
1399.27
 20
435.461
 40
1.5
 50
180
 51
360
  0
ARC
  8
1
  6
CONTINUOUS
  62
7
 10
1413.27
 20
435.461
 40
1.5
 50
180
 51
289.47
  0
ARC
  8
1
  6
CONTINUOUS
  62
7
 10
1406.27
 20
462.461
 40
1.5
 50
0
 51
180
  0
ARC
  8
1
  6
CONTINUOUS
  62
7
 10
1406.27
 20
435.461
 40
1.5
 50
180
 51
360
  0
ARC
  8
1
  6
CONTINUOUS
  62
7
 10
1385.27
 20
435.461
 40
1.5
 50
180
 51
360
  0
ARC
  8
1
  6
CONTINUOUS
  62
7
 10
1385.27
 20
462.461
 40
1.5
 50
0
 51
180
  0
ARC
  8
1
  6
CONTINUOUS
  62
7
 10
1378.27
 20
435.461
 40
1.5
 50
180
 51
360
  0
ARC
  8
1
  6
CONTINUOUS
  62
7
 10
1378.27
 20
462.461
 40
1.5
 50
0
 51
180
  0
ARC
  8
1
  6
CONTINUOUS
  62
7
 10
1371.27
 20
462.461
 40
1.5
 50
0
 51
180
  0
ARC
  8
1
  6
CONTINUOUS
  62
7
 10
1371.27
 20
435.461
 40
1.5
 50
180
 51
360
  0
ARC
  8
1
  6
CONTINUOUS
  62
7
 10
1385.27
 20
422.461
 40
1.5
 50
0
 51
180
  0
ARC
  8
1
  6
CONTINUOUS
  62
7
 10
1385.27
 20
395.461
 40
1.5
 50
180
 51
360
  0
ARC
  8
1
  6
CONTINUOUS
  62
7
 10
1406.27
 20
422.461
 40
1.5
 50
0
 51
180
  0
ARC
  8
1
  6
CONTINUOUS
  62
7
 10
1413.27
 20
422.461
 40
1.5
 50
70.53
 51
180
  0
ARC
  8
1
  6
CONTINUOUS
  62
7
 10
1399.27
 20
395.461
 40
1.5
 50
180
 51
360
  0
ARC
  8
1
  6
CONTINUOUS
  62
7
 10
1399.27
 20
422.461
 40
1.5
 50
0
 51
180
  0
ARC
  8
1
  6
CONTINUOUS
  62
7
 10
1392.27
 20
422.461
 40
1.5
 50
0
 51
180
  0
ARC
  8
1
  6
CONTINUOUS
  62
7
 10
1392.27
 20
395.461
 40
1.5
 50
180
 51
360
  0
ARC
  8
1
  6
CONTINUOUS
  62
7
 10
1675.27
 20
395.461
 40
1.5
 50
180
 51
360
  0
ARC
  8
1
  6
CONTINUOUS
  62
7
 10
1675.27
 20
422.461
 40
1.5
 50
0
 51
180
  0
ARC
  8
1
  6
CONTINUOUS
  62
7
 10
1668.27
 20
422.461
 40
1.5
 50
0
 51
180
  0
ARC
  8
1
  6
CONTINUOUS
  62
7
 10
1668.27
 20
395.461
 40
1.5
 50
180
 51
360
  0
ARC
  8
1
  6
CONTINUOUS
  62
7
 10
1654.27
 20
395.461
 40
1.5
 50
250.53
 51
360
  0
ARC
  8
1
  6
CONTINUOUS
  62
7
 10
1654.27
 20
422.461
 40
1.5
 50
0
 51
109.47
  0
ARC
  8
1
  6
CONTINUOUS
  62
7
 10
1661.27
 20
422.461
 40
1.5
 50
0
 51
180
  0
ARC
  8
1
  6
CONTINUOUS
  62
7
 10
1661.27
 20
395.461
 40
1.5
 50
180
 51
360
  0
ARC
  8
1
  6
CONTINUOUS
  62
7
 10
1682.27
 20
395.461
 40
1.5
 50
180
 51
360
  0
ARC
  8
1
  6
CONTINUOUS
  62
7
 10
1682.27
 20
422.461
 40
1.5
 50
0
 51
180
  0
ARC
  8
1
  6
CONTINUOUS
  62
7
 10
1696.27
 20
435.461
 40
1.5
 50
180
 51
360
  0
ARC
  8
1
  6
CONTINUOUS
  62
7
 10
1696.27
 20
462.461
 40
1.5
 50
0
 51
180
  0
ARC
  8
1
  6
CONTINUOUS
  62
7
 10
1689.27
 20
462.461
 40
1.5
 50
0
 51
180
  0
ARC
  8
1
  6
CONTINUOUS
  62
7
 10
1689.27
 20
435.461
 40
1.5
 50
180
 51
360
  0
ARC
  8
1
  6
CONTINUOUS
  62
7
 10
1682.27
 20
462.461
 40
1.5
 50
0
 51
180
  0
ARC
  8
1
  6
CONTINUOUS
  62
7
 10
1682.27
 20
435.461
 40
1.5
 50
180
 51
360
  0
ARC
  8
1
  6
CONTINUOUS
  62
7
 10
1661.27
 20
435.461
 40
1.5
 50
180
 51
360
  0
ARC
  8
1
  6
CONTINUOUS
  62
7
 10
1661.27
 20
462.461
 40
1.5
 50
0
 51
180
  0
ARC
  8
1
  6
CONTINUOUS
  62
7
 10
1654.27
 20
435.461
 40
1.5
 50
250.53
 51
360
  0
ARC
  8
1
  6
CONTINUOUS
  62
7
 10
1668.27
 20
435.461
 40
1.5
 50
180
 51
360
  0
ARC
  8
1
  6
CONTINUOUS
  62
7
 10
1668.27
 20
462.461
 40
1.5
 50
0
 51
180
  0
ARC
  8
1
  6
CONTINUOUS
  62
7
 10
1675.27
 20
462.461
 40
1.5
 50
0
 51
180
  0
ARC
  8
1
  6
CONTINUOUS
  62
7
 10
1675.27
 20
435.461
 40
1.5
 50
180
 51
360
  0
ARC
  8
1
  6
CONTINUOUS
  62
7
 10
1356.53
 20
442.618
 40
0.7
 50
198.34
 51
288.34
  0
ARC
  8
1
  6
CONTINUOUS
  62
7
 10
1355.08
 20
446.984
 40
0.7
 50
108.34
 51
198.34
  0
ARC
  8
1
  6
CONTINUOUS
  62
7
 10
1373.97
 20
390.034
 40
0.7
 50
108.34
 51
198.34
  0
ARC
  8
1
  6
CONTINUOUS
  62
7
 10
1375.41
 20
385.667
 40
0.7
 50
198.34
 51
288.34
  0
ARC
  8
1
  6
CONTINUOUS
  62
7
 10
1692.12
 20
385.667
 40
0.7
 50
251.66
 51
341.66
  0
ARC
  8
1
  6
CONTINUOUS
  62
7
 10
1693.57
 20
390.034
 40
0.7
 50
341.66
 51
431.66
  0
ARC
  8
1
  6
CONTINUOUS
  62
7
 10
1712.46
 20
446.984
 40
0.7
 50
341.66
 51
431.66
  0
ARC
  8
1
  6
CONTINUOUS
  62
7
 10
1711.01
 20
442.618
 40
0.7
 50
251.66
 51
341.66
  0
ARC
  8
1
  6
CONTINUOUS
  62
7
 10
1727.47
 20
501.308
 40
1
 50
338.49
 51
428.49
  0
ARC
  8
1
  6
CONTINUOUS
  62
7
 10
1718.57
 20
510.324
 40
0.8
 50
135
 51
180
  0
CIRCLE
  8
1
  6
CONTINUOUS
  62
7
 10
1416.27
 20
493.961
 40
3
  0
CIRCLE
  8
1
  6
CONTINUOUS
  62
7
 10
1651.27
 20
493.961
 40
3
  0
ARC
  8
1
  6
CONTINUOUS
  62
7
 10
1578.77
 20
427.461
 40
20.5
 50
249.46
 51
290.54
  0
ARC
  8
1
  6
CONTINUOUS
  62
7
 10
1578.77
 20
427.461
 40
19
 50
74.74
 51
105.26
  0
ARC
  8
1
  6
CONTINUOUS
  62
7
 10
1571.93
 20
409.201
 40
1
 50
249.46
 51
300.68
  0
ARC
  8
1
  6
CONTINUOUS
  62
7
 10
1585.61
 20
409.201
 40
1
 50
239.32
 51
290.54
  0
ARC
  8
1
  6
CONTINUOUS
  62
7
 10
1585.61
 20
445.721
 40
1
 50
69.46
 51
120.68
  0
ARC
  8
1
  6
CONTINUOUS
  62
7
 10
1571.93
 20
445.721
 40
1
 50
59.32
 51
110.54
  0
ARC
  8
1
  6
CONTINUOUS
  62
7
 10
1578.77
 20
427.461
 40
19
 50
254.74
 51
285.26
  0
ARC
  8
1
  6
CONTINUOUS
  62
7
 10
1578.77
 20
427.461
 40
20.5
 50
69.46
 51
110.54
  0
CIRCLE
  8
1
  6
CONTINUOUS
  62
7
 10
1578.77
 20
427.461
 40
22.5
  0
CIRCLE
  8
1
  6
CONTINUOUS
  62
7
 10
1493.77
 20
393.461
 40
10
  0
ARC
  8
1
  6
CONTINUOUS
  62
7
 10
1578.27
 20
364.961
 40
5
 50
143.13
 51
216.87
  0
ARC
  8
1
  6
CONTINUOUS
  62
7
 10
1579.27
 20
364.961
 40
5
 50
323.13
 51
396.87
  0
ARC
  8
1
  6
CONTINUOUS
  62
7
 10
1579.27
 20
370.961
 40
5
 50
323.13
 51
348.46
  0
ARC
  8
1
  6
CONTINUOUS
  62
7
 10
1578.27
 20
370.961
 40
5
 50
191.54
 51
216.87
  0
CIRCLE
  8
1
  6
CONTINUOUS
  62
7
 10
1433.77
 20
439.961
 40
15
  0
CIRCLE
  8
1
  6
CONTINUOUS
  62
7
 10
1633.77
 20
439.961
 40
15
  0
CIRCLE
  8
1
  6
CONTINUOUS
  62
7
 10
1499.77
 20
442.461
 40
5
  0
ARC
  8
1
  6
CONTINUOUS
  62
7
 10
1493.77
 20
430.961
 40
41
 50
195.56
 51
256.28
  0
ARC
  8
1
  6
CONTINUOUS
  62
7
 10
1493.77
 20
430.961
 40
34
 50
195.56
 51
254.92
  0
ARC
  8
1
  6
CONTINUOUS
  62
7
 10
1529.89
 20
420.9
 40
3.5
 50
344.44
 51
524.44
  0
ARC
  8
1
  6
CONTINUOUS
  62
7
 10
1457.64
 20
420.9
 40
3.5
 50
15.56
 51
195.56
  0
ARC
  8
1
  6
CONTINUOUS
  62
7
 10
1493.77
 20
430.961
 40
34
 50
285.07
 51
344.43
  0
ARC
  8
1
  6
CONTINUOUS
  62
7
 10
1493.77
 20
430.961
 40
41
 50
283.72
 51
344.44
  0
ARC
  8
1
  6
CONTINUOUS
  62
7
 10
1718.57
 20
495.324
 40
0.8
 50
180
 51
213.4
  0
ARC
  8
1
  6
CONTINUOUS
  62
7
 10
1727.97
 20
479.613
 40
0.8
 50
0
 51
33.4
  0
ARC
  8
1
  6
CONTINUOUS
  62
7
 10
1339.57
 20
479.613
 40
0.8
 50
146.6
 51
180
  0
ARC
  8
1
  6
CONTINUOUS
  62
7
 10
1348.97
 20
495.324
 40
0.8
 50
326.6
 51
360
  0
ARC
  8
1
  6
CONTINUOUS
  62
7
 10
1348.97
 20
510.324
 40
0.8
 50
0
 51
45
  0
ARC
  8
1
  6
CONTINUOUS
  62
7
 10
1340.07
 20
501.308
 40
1
 50
111.51
 51
201.51
  0
ARC
  8
1
  6
CONTINUOUS
  62
7
 10
1404.77
 20
387.848
 40
1
 50
180
 51
270
  0
ARC
  8
1
  6
CONTINUOUS
  62
7
 10
1404.77
 20
418.848
 40
1
 50
90
 51
180
  0
ARC
  8
1
  6
CONTINUOUS
  62
7
 10
1578.77
 20
461.461
 40
6.5
 50
0
 51
180
  0
ARC
  8
1
  6
CONTINUOUS
  62
7
 10
1654.27
 20
462.461
 40
1.5
 50
0
 51
180
  0
ARC
  8
1
  6
CONTINUOUS
  62
7
 10
1413.27
 20
462.461
 40
1.5
 50
0
 51
180
  0
ARC
  8
1
  6
CONTINUOUS
  62
7
 10
1349.77
 20
276.902
 40
1.25
 50
0
 51
180
  0
ARC
  8
1
  6
CONTINUOUS
  62
7
 10
1349.77
 20
276.902
 40
1.25
 50
180
 51
360
  0
ARC
  8
1
  6
CONTINUOUS
  62
7
 10
1338.77
 20
276.902
 40
1.25
 50
180
 51
360
  0
ARC
  8
1
  6
CONTINUOUS
  62
7
 10
1338.77
 20
276.902
 40
1.25
 50
0
 51
180
  0
ARC
  8
1
  6
CONTINUOUS
  62
7
 10
1338.77
 20
276.902
 40
1.25
 50
0
 51
180
  0
ARC
  8
1
  6
CONTINUOUS
  62
7
 10
1338.77
 20
276.902
 40
1.25
 50
180
 51
360
  0
ARC
  8
1
  6
CONTINUOUS
  62
7
 10
1328.77
 20
276.902
 40
1.25
 50
180
 51
360
  0
ARC
  8
1
  6
CONTINUOUS
  62
7
 10
1328.77
 20
276.902
 40
1.25
 50
0
 51
180
  0
ARC
  8
1
  6
CONTINUOUS
  62
7
 10
1381.27
 20
313.728
 40
1.25
 50
0
 51
180
  0
ARC
  8
1
  6
CONTINUOUS
  62
7
 10
1381.27
 20
313.728
 40
1.25
 50
180
 51
360
  0
ARC
  8
1
  6
CONTINUOUS
  62
7
 10
1686.27
 20
313.728
 40
1.25
 50
180
 51
360
  0
ARC
  8
1
  6
CONTINUOUS
  62
7
 10
1686.27
 20
313.728
 40
1.25
 50
0
 51
180
  0
ARC
  8
1
  6
CONTINUOUS
  62
7
 10
1728.77
 20
276.902
 40
1.25
 50
180
 51
360
  0
ARC
  8
1
  6
CONTINUOUS
  62
7
 10
1728.77
 20
276.902
 40
1.25
 50
0
 51
180
  0
ARC
  8
1
  6
CONTINUOUS
  62
7
 10
1738.77
 20
276.902
 40
1.25
 50
0
 51
180
  0
ARC
  8
1
  6
CONTINUOUS
  62
7
 10
1738.77
 20
276.902
 40
1.25
 50
180
 51
360
  0
ARC
  8
1
  6
CONTINUOUS
  62
7
 10
1717.77
 20
276.902
 40
1.25
 50
180
 51
360
  0
ARC
  8
1
  6
CONTINUOUS
  62
7
 10
1717.77
 20
276.902
 40
1.25
 50
0
 51
180
  0
ARC
  8
1
  6
CONTINUOUS
  62
7
 10
1728.77
 20
276.902
 40
1.25
 50
0
 51
180
  0
ARC
  8
1
  6
CONTINUOUS
  62
7
 10
1728.77
 20
276.902
 40
1.25
 50
180
 51
360
  0
ARC
  8
1
  6
CONTINUOUS
  62
7
 10
1349.77
 20
276.902
 40
1.25
 50
0
 51
180
  0
ARC
  8
1
  6
CONTINUOUS
  62
7
 10
1349.77
 20
276.902
 40
1.25
 50
180
 51
360
  0
ARC
  8
1
  6
CONTINUOUS
  62
7
 10
1717.77
 20
276.902
 40
1.25
 50
180
 51
360
  0
ARC
  8
1
  6
CONTINUOUS
  62
7
 10
1717.77
 20
276.902
 40
1.25
 50
0
 51
180
  0
ARC
  8
1
  6
CONTINUOUS
  62
7
 10
1171.95
 20
368.961
 40
1.25
 50
270
 51
450
  0
ARC
  8
1
  6
CONTINUOUS
  62
7
 10
1171.95
 20
368.961
 40
1.25
 50
90
 51
270
  0
ARC
  8
1
  6
CONTINUOUS
  62
7
 10
1171.95
 20
518.961
 40
1.25
 50
90
 51
270
  0
ARC
  8
1
  6
CONTINUOUS
  62
7
 10
1171.95
 20
518.961
 40
1.25
 50
270
 51
450
  0
ARC
  8
1
  6
CONTINUOUS
  62
7
 10
1087.65
 20
369.961
 40
1.25
 50
270
 51
450
  0
ARC
  8
1
  6
CONTINUOUS
  62
7
 10
1087.65
 20
369.961
 40
1.25
 50
90
 51
270
  0
ARC
  8
1
  6
CONTINUOUS
  62
7
 10
1087.65
 20
459.961
 40
1.25
 50
90
 51
270
  0
ARC
  8
1
  6
CONTINUOUS
  62
7
 10
1087.65
 20
459.961
 40
1.25
 50
270
 51
450
  0
ARC
  8
1
  6
CONTINUOUS
  62
7
 10
315.857
 20
276.902
 40
1.25
 50
0
 51
180
  0
ARC
  8
1
  6
CONTINUOUS
  62
7
 10
315.857
 20
276.902
 40
1.25
 50
180
 51
360
  0
ARC
  8
1
  6
CONTINUOUS
  62
7
 10
294.857
 20
276.902
 40
1.25
 50
180
 51
360
  0
ARC
  8
1
  6
CONTINUOUS
  62
7
 10
294.857
 20
276.902
 40
1.25
 50
0
 51
180
  0
ARC
  8
1
  6
CONTINUOUS
  62
7
 10
807.857
 20
276.902
 40
1.25
 50
0
 51
180
  0
ARC
  8
1
  6
CONTINUOUS
  62
7
 10
807.857
 20
276.902
 40
1.25
 50
180
 51
360
  0
ARC
  8
1
  6
CONTINUOUS
  62
7
 10
315.857
 20
276.902
 40
1.25
 50
180
 51
360
  0
ARC
  8
1
  6
CONTINUOUS
  62
7
 10
315.857
 20
276.902
 40
1.25
 50
0
 51
180
  0
ARC
  8
1
  6
CONTINUOUS
  62
7
 10
847.857
 20
276.902
 40
1.25
 50
0
 51
180
  0
ARC
  8
1
  6
CONTINUOUS
  62
7
 10
847.857
 20
276.902
 40
1.25
 50
180
 51
360
  0
ARC
  8
1
  6
CONTINUOUS
  62
7
 10
807.857
 20
276.902
 40
1.25
 50
180
 51
360
  0
ARC
  8
1
  6
CONTINUOUS
  62
7
 10
807.857
 20
276.902
 40
1.25
 50
0
 51
180
  0
ARC
  8
1
  6
CONTINUOUS
  62
7
 10
868.857
 20
276.902
 40
1.25
 50
0
 51
180
  0
ARC
  8
1
  6
CONTINUOUS
  62
7
 10
868.857
 20
276.902
 40
1.25
 50
180
 51
360
  0
ARC
  8
1
  6
CONTINUOUS
  62
7
 10
847.857
 20
276.902
 40
1.25
 50
180
 51
360
  0
ARC
  8
1
  6
CONTINUOUS
  62
7
 10
847.857
 20
276.902
 40
1.25
 50
0
 51
180
  0
ARC
  8
1
  6
CONTINUOUS
  62
7
 10
425.857
 20
374.961
 40
5
 50
270
 51
360
  0
ARC
  8
1
  6
CONTINUOUS
  62
7
 10
331.857
 20
374.961
 40
5
 50
180
 51
270
  0
ARC
  8
1
  6
CONTINUOUS
  62
7
 10
923.607
 20
457.997
 40
12.25
 50
163.57
 51
170.77
  0
ARC
  8
1
  6
CONTINUOUS
  62
7
 10
909.107
 20
457.997
 40
12.25
 50
9.23
 51
16.43
  0
ARC
  8
1
  6
CONTINUOUS
  62
7
 10
923.607
 20
464.925
 40
12.25
 50
163.57
 51
196.42
  0
ARC
  8
1
  6
CONTINUOUS
  62
7
 10
909.107
 20
464.925
 40
12.25
 50
343.57
 51
376.42
  0
ARC
  8
1
  6
CONTINUOUS
  62
7
 10
901.357
 20
443.461
 40
20
 50
90
 51
124.41
  0
ARC
  8
1
  6
CONTINUOUS
  62
7
 10
934.357
 20
457.961
 40
10
 50
11.54
 51
90
  0
ARC
  8
1
  6
CONTINUOUS
  62
7
 10
367.857
 20
493.961
 40
3
 50
48.19
 51
90
  0
ARC
  8
1
  6
CONTINUOUS
  62
7
 10
367.857
 20
493.961
 40
3
 50
311.81
 51
408.19
  0
ARC
  8
1
  6
CONTINUOUS
  62
7
 10
781.857
 20
493.961
 40
3
 50
228.19
 51
270
  0
ARC
  8
1
  6
CONTINUOUS
  62
7
 10
781.857
 20
493.961
 40
3
 50
131.81
 51
228.19
  0
ARC
  8
1
  6
CONTINUOUS
  62
7
 10
815.857
 20
493.961
 40
3
 50
0
 51
90
  0
ARC
  8
1
  6
CONTINUOUS
  62
7
 10
809.857
 20
493.961
 40
3
 50
228.19
 51
270
  0
ARC
  8
1
  6
CONTINUOUS
  62
7
 10
823.857
 20
493.961
 40
3
 50
180
 51
270
  0
ARC
  8
1
  6
CONTINUOUS
  62
7
 10
591.857
 20
493.961
 40
3
 50
270
 51
450
  0
ARC
  8
1
  6
CONTINUOUS
  62
7
 10
585.857
 20
493.961
 40
3
 50
90
 51
270
  0
ARC
  8
1
  6
CONTINUOUS
  62
7
 10
599.857
 20
493.961
 40
3
 50
90
 51
270
  0
ARC
  8
1
  6
CONTINUOUS
  62
7
 10
605.857
 20
493.961
 40
3
 50
270
 51
450
  0
ARC
  8
1
  6
CONTINUOUS
  62
7
 10
633.857
 20
493.961
 40
3
 50
270
 51
450
  0
ARC
  8
1
  6
CONTINUOUS
  62
7
 10
627.857
 20
493.961
 40
3
 50
90
 51
270
  0
ARC
  8
1
  6
CONTINUOUS
  62
7
 10
613.857
 20
493.961
 40
3
 50
90
 51
270
  0
ARC
  8
1
  6
CONTINUOUS
  62
7
 10
619.857
 20
493.961
 40
3
 50
270
 51
450
  0
ARC
  8
1
  6
CONTINUOUS
  62
7
 10
675.857
 20
493.961
 40
3
 50
270
 51
450
  0
ARC
  8
1
  6
CONTINUOUS
  62
7
 10
669.857
 20
493.961
 40
3
 50
90
 51
270
  0
ARC
  8
1
  6
CONTINUOUS
  62
7
 10
683.857
 20
493.961
 40
3
 50
90
 51
270
  0
ARC
  8
1
  6
CONTINUOUS
  62
7
 10
689.857
 20
493.961
 40
3
 50
270
 51
450
  0
ARC
  8
1
  6
CONTINUOUS
  62
7
 10
661.857
 20
493.961
 40
3
 50
270
 51
450
  0
ARC
  8
1
  6
CONTINUOUS
  62
7
 10
655.857
 20
493.961
 40
3
 50
90
 51
270
  0
ARC
  8
1
  6
CONTINUOUS
  62
7
 10
641.857
 20
493.961
 40
3
 50
90
 51
270
  0
ARC
  8
1
  6
CONTINUOUS
  62
7
 10
647.857
 20
493.961
 40
3
 50
270
 51
450
  0
ARC
  8
1
  6
CONTINUOUS
  62
7
 10
745.857
 20
493.961
 40
3
 50
270
 51
450
  0
ARC
  8
1
  6
CONTINUOUS
  62
7
 10
739.857
 20
493.961
 40
3
 50
90
 51
270
  0
ARC
  8
1
  6
CONTINUOUS
  62
7
 10
753.857
 20
493.961
 40
3
 50
90
 51
270
  0
ARC
  8
1
  6
CONTINUOUS
  62
7
 10
759.857
 20
493.961
 40
3
 50
270
 51
450
  0
ARC
  8
1
  6
CONTINUOUS
  62
7
 10
787.857
 20
493.961
 40
3
 50
270
 51
450
  0
ARC
  8
1
  6
CONTINUOUS
  62
7
 10
781.857
 20
493.961
 40
3
 50
90
 51
131.81
  0
ARC
  8
1
  6
CONTINUOUS
  62
7
 10
767.857
 20
493.961
 40
3
 50
90
 51
270
  0
ARC
  8
1
  6
CONTINUOUS
  62
7
 10
773.857
 20
493.961
 40
3
 50
270
 51
450
  0
ARC
  8
1
  6
CONTINUOUS
  62
7
 10
717.857
 20
493.961
 40
3
 50
270
 51
450
  0
ARC
  8
1
  6
CONTINUOUS
  62
7
 10
711.857
 20
493.961
 40
3
 50
90
 51
270
  0
ARC
  8
1
  6
CONTINUOUS
  62
7
 10
725.857
 20
493.961
 40
3
 50
90
 51
270
  0
ARC
  8
1
  6
CONTINUOUS
  62
7
 10
731.857
 20
493.961
 40
3
 50
270
 51
450
  0
ARC
  8
1
  6
CONTINUOUS
  62
7
 10
703.857
 20
493.961
 40
3
 50
270
 51
450
  0
ARC
  8
1
  6
CONTINUOUS
  62
7
 10
697.857
 20
493.961
 40
3
 50
90
 51
270
  0
ARC
  8
1
  6
CONTINUOUS
  62
7
 10
815.857
 20
493.961
 40
3
 50
270
 51
360
  0
ARC
  8
1
  6
CONTINUOUS
  62
7
 10
809.857
 20
493.961
 40
3
 50
90
 51
228.19
  0
ARC
  8
1
  6
CONTINUOUS
  62
7
 10
823.857
 20
493.961
 40
3
 50
90
 51
180
  0
ARC
  8
1
  6
CONTINUOUS
  62
7
 10
829.857
 20
493.961
 40
3
 50
270
 51
450
  0
ARC
  8
1
  6
CONTINUOUS
  62
7
 10
801.857
 20
493.961
 40
3
 50
270
 51
450
  0
ARC
  8
1
  6
CONTINUOUS
  62
7
 10
795.857
 20
493.961
 40
3
 50
90
 51
270
  0
ARC
  8
1
  6
CONTINUOUS
  62
7
 10
367.857
 20
493.961
 40
3
 50
270
 51
311.81
  0
ARC
  8
1
  6
CONTINUOUS
  62
7
 10
361.857
 20
493.961
 40
3
 50
90
 51
270
  0
ARC
  8
1
  6
CONTINUOUS
  62
7
 10
333.857
 20
493.961
 40
3
 50
90
 51
270
  0
ARC
  8
1
  6
CONTINUOUS
  62
7
 10
339.857
 20
493.961
 40
3
 50
270
 51
450
  0
ARC
  8
1
  6
CONTINUOUS
  62
7
 10
353.857
 20
493.961
 40
3
 50
270
 51
450
  0
ARC
  8
1
  6
CONTINUOUS
  62
7
 10
347.857
 20
493.961
 40
3
 50
90
 51
270
  0
ARC
  8
1
  6
CONTINUOUS
  62
7
 10
465.857
 20
493.961
 40
3
 50
270
 51
450
  0
ARC
  8
1
  6
CONTINUOUS
  62
7
 10
459.857
 20
493.961
 40
3
 50
90
 51
270
  0
ARC
  8
1
  6
CONTINUOUS
  62
7
 10
431.857
 20
493.961
 40
3
 50
90
 51
270
  0
ARC
  8
1
  6
CONTINUOUS
  62
7
 10
437.857
 20
493.961
 40
3
 50
270
 51
450
  0
ARC
  8
1
  6
CONTINUOUS
  62
7
 10
451.857
 20
493.961
 40
3
 50
270
 51
450
  0
ARC
  8
1
  6
CONTINUOUS
  62
7
 10
445.857
 20
493.961
 40
3
 50
90
 51
270
  0
ARC
  8
1
  6
CONTINUOUS
  62
7
 10
389.857
 20
493.961
 40
3
 50
90
 51
270
  0
ARC
  8
1
  6
CONTINUOUS
  62
7
 10
395.857
 20
493.961
 40
3
 50
270
 51
450
  0
ARC
  8
1
  6
CONTINUOUS
  62
7
 10
381.857
 20
493.961
 40
3
 50
270
 51
450
  0
ARC
  8
1
  6
CONTINUOUS
  62
7
 10
375.857
 20
493.961
 40
3
 50
90
 51
270
  0
ARC
  8
1
  6
CONTINUOUS
  62
7
 10
403.857
 20
493.961
 40
3
 50
90
 51
270
  0
ARC
  8
1
  6
CONTINUOUS
  62
7
 10
409.857
 20
493.961
 40
3
 50
270
 51
450
  0
ARC
  8
1
  6
CONTINUOUS
  62
7
 10
423.857
 20
493.961
 40
3
 50
270
 51
450
  0
ARC
  8
1
  6
CONTINUOUS
  62
7
 10
417.857
 20
493.961
 40
3
 50
90
 51
270
  0
ARC
  8
1
  6
CONTINUOUS
  62
7
 10
515.857
 20
493.961
 40
3
 50
90
 51
270
  0
ARC
  8
1
  6
CONTINUOUS
  62
7
 10
521.857
 20
493.961
 40
3
 50
270
 51
450
  0
ARC
  8
1
  6
CONTINUOUS
  62
7
 10
507.857
 20
493.961
 40
3
 50
270
 51
450
  0
ARC
  8
1
  6
CONTINUOUS
  62
7
 10
501.857
 20
493.961
 40
3
 50
90
 51
270
  0
ARC
  8
1
  6
CONTINUOUS
  62
7
 10
473.857
 20
493.961
 40
3
 50
90
 51
270
  0
ARC
  8
1
  6
CONTINUOUS
  62
7
 10
479.857
 20
493.961
 40
3
 50
270
 51
450
  0
ARC
  8
1
  6
CONTINUOUS
  62
7
 10
493.857
 20
493.961
 40
3
 50
270
 51
450
  0
ARC
  8
1
  6
CONTINUOUS
  62
7
 10
487.857
 20
493.961
 40
3
 50
90
 51
270
  0
ARC
  8
1
  6
CONTINUOUS
  62
7
 10
543.857
 20
493.961
 40
3
 50
90
 51
270
  0
ARC
  8
1
  6
CONTINUOUS
  62
7
 10
549.857
 20
493.961
 40
3
 50
270
 51
450
  0
ARC
  8
1
  6
CONTINUOUS
  62
7
 10
535.857
 20
493.961
 40
3
 50
270
 51
450
  0
ARC
  8
1
  6
CONTINUOUS
  62
7
 10
529.857
 20
493.961
 40
3
 50
90
 51
270
  0
ARC
  8
1
  6
CONTINUOUS
  62
7
 10
557.857
 20
493.961
 40
3
 50
90
 51
270
  0
ARC
  8
1
  6
CONTINUOUS
  62
7
 10
563.857
 20
493.961
 40
3
 50
270
 51
450
  0
ARC
  8
1
  6
CONTINUOUS
  62
7
 10
577.857
 20
493.961
 40
3
 50
270
 51
450
  0
ARC
  8
1
  6
CONTINUOUS
  62
7
 10
571.857
 20
493.961
 40
3
 50
90
 51
270
  0
ARC
  8
1
  6
CONTINUOUS
  62
7
 10
975.621
 20
417.562
 40
4.735
 50
302.38
 51
417.62
  0
ARC
  8
1
  6
CONTINUOUS
  62
7
 10
975.621
 20
437.361
 40
4.735
 50
302.38
 51
417.62
  0
ARC
  8
1
  6
CONTINUOUS
  62
7
 10
996.857
 20
393.461
 40
10
 50
210
 51
510
  0
ARC
  8
1
  6
CONTINUOUS
  62
7
 10
808.057
 20
382.761
 40
0.8
 50
270
 51
360
  0
ARC
  8
1
  6
CONTINUOUS
  62
7
 10
808.657
 20
460.161
 40
0.8
 50
90
 51
180
  0
ARC
  8
1
  6
CONTINUOUS
  62
7
 10
852.857
 20
430.961
 40
6
 50
180
 51
360
  0
ARC
  8
1
  6
CONTINUOUS
  62
7
 10
852.857
 20
448.961
 40
6
 50
0
 51
180
  0
ARC
  8
1
  6
CONTINUOUS
  62
7
 10
837.857
 20
448.961
 40
6
 50
0
 51
180
  0
ARC
  8
1
  6
CONTINUOUS
  62
7
 10
837.857
 20
430.961
 40
6
 50
180
 51
360
  0
ARC
  8
1
  6
CONTINUOUS
  62
7
 10
822.857
 20
430.961
 40
6
 50
180
 51
360
  0
ARC
  8
1
  6
CONTINUOUS
  62
7
 10
822.857
 20
448.961
 40
6
 50
0
 51
180
  0
CIRCLE
  8
1
  6
CONTINUOUS
  62
7
 10
882.857
 20
409.961
 40
20
  0
ARC
  8
1
  6
CONTINUOUS
  62
7
 10
877.357
 20
364.961
 40
5
 50
143.13
 51
216.87
  0
ARC
  8
1
  6
CONTINUOUS
  62
7
 10
878.357
 20
364.961
 40
5
 50
323.13
 51
396.87
  0
ARC
  8
1
  6
CONTINUOUS
  62
7
 10
878.357
 20
370.961
 40
5
 50
323.13
 51
348.46
  0
ARC
  8
1
  6
CONTINUOUS
  62
7
 10
877.357
 20
370.961
 40
5
 50
191.54
 51
216.87
  0
ARC
  8
1
  6
CONTINUOUS
  62
7
 10
1013.36
 20
445.993
 40
0.5
 50
0
 51
85.81
  0
ARC
  8
1
  6
CONTINUOUS
  62
7
 10
1013.36
 20
408.929
 40
0.5
 50
274.19
 51
360
  0
ARC
  8
1
  6
CONTINUOUS
  62
7
 10
992.857
 20
405.461
 40
0.5
 50
270
 51
360
  0
ARC
  8
1
  6
CONTINUOUS
  62
7
 10
992.857
 20
449.461
 40
0.5
 50
0
 51
90
  0
ARC
  8
1
  6
CONTINUOUS
  62
7
 10
994.413
 20
448.886
 40
1
 50
185.05
 51
265.81
  0
ARC
  8
1
  6
CONTINUOUS
  62
7
 10
751.857
 20
427.461
 40
242.5
 50
354.79
 51
365.2
  0
ARC
  8
1
  6
CONTINUOUS
  62
7
 10
994.413
 20
406.036
 40
1
 50
94.19
 51
174.95
  0
CIRCLE
  8
1
  6
CONTINUOUS
  62
7
 10
882.857
 20
409.961
 40
6.5
  0
CIRCLE
  8
1
  6
CONTINUOUS
  62
7
 10
882.857
 20
409.961
 40
16.5
  0
ARC
  8
1
  6
CONTINUOUS
  62
7
 10
315.557
 20
495.261
 40
1.7
 50
90
 51
180
  0
ARC
  8
1
  6
CONTINUOUS
  62
7
 10
315.557
 20
492.661
 40
1.7
 50
180
 51
270
  0
ARC
  8
1
  6
CONTINUOUS
  62
7
 10
848.157
 20
492.661
 40
1.7
 50
270
 51
360
  0
ARC
  8
1
  6
CONTINUOUS
  62
7
 10
848.157
 20
495.261
 40
1.7
 50
0
 51
90
  0
ARC
  8
1
  6
CONTINUOUS
  62
7
 10
755.357
 20
469.461
 40
1.5
 50
270
 51
450
  0
ARC
  8
1
  6
CONTINUOUS
  62
7
 10
728.357
 20
469.461
 40
1.5
 50
90
 51
270
  0
ARC
  8
1
  6
CONTINUOUS
  62
7
 10
688.357
 20
469.461
 40
1.5
 50
90
 51
270
  0
ARC
  8
1
  6
CONTINUOUS
  62
7
 10
715.357
 20
469.461
 40
1.5
 50
270
 51
450
  0
ARC
  8
1
  6
CONTINUOUS
  62
7
 10
675.357
 20
469.461
 40
1.5
 50
270
 51
450
  0
ARC
  8
1
  6
CONTINUOUS
  62
7
 10
648.357
 20
469.461
 40
1.5
 50
90
 51
270
  0
ARC
  8
1
  6
CONTINUOUS
  62
7
 10
608.357
 20
469.461
 40
1.5
 50
90
 51
270
  0
ARC
  8
1
  6
CONTINUOUS
  62
7
 10
635.357
 20
469.461
 40
1.5
 50
270
 51
450
  0
ARC
  8
1
  6
CONTINUOUS
  62
7
 10
595.357
 20
469.461
 40
1.5
 50
270
 51
450
  0
ARC
  8
1
  6
CONTINUOUS
  62
7
 10
568.357
 20
469.461
 40
1.5
 50
90
 51
270
  0
ARC
  8
1
  6
CONTINUOUS
  62
7
 10
528.357
 20
469.461
 40
1.5
 50
90
 51
270
  0
ARC
  8
1
  6
CONTINUOUS
  62
7
 10
555.357
 20
469.461
 40
1.5
 50
270
 51
450
  0
ARC
  8
1
  6
CONTINUOUS
  62
7
 10
515.357
 20
469.461
 40
1.5
 50
270
 51
450
  0
ARC
  8
1
  6
CONTINUOUS
  62
7
 10
488.357
 20
469.461
 40
1.5
 50
90
 51
270
  0
ARC
  8
1
  6
CONTINUOUS
  62
7
 10
448.357
 20
469.461
 40
1.5
 50
90
 51
270
  0
ARC
  8
1
  6
CONTINUOUS
  62
7
 10
475.357
 20
469.461
 40
1.5
 50
270
 51
450
  0
ARC
  8
1
  6
CONTINUOUS
  62
7
 10
395.357
 20
469.461
 40
1.5
 50
270
 51
450
  0
ARC
  8
1
  6
CONTINUOUS
  62
7
 10
368.357
 20
469.461
 40
1.5
 50
90
 51
270
  0
ARC
  8
1
  6
CONTINUOUS
  62
7
 10
408.357
 20
469.461
 40
1.5
 50
90
 51
270
  0
ARC
  8
1
  6
CONTINUOUS
  62
7
 10
435.357
 20
469.461
 40
1.5
 50
270
 51
450
  0
ARC
  8
1
  6
CONTINUOUS
  62
7
 10
868.857
 20
664.714
 40
1.25
 50
0
 51
180
  0
ARC
  8
1
  6
CONTINUOUS
  62
7
 10
868.857
 20
664.714
 40
1.25
 50
180
 51
360
  0
ARC
  8
1
  6
CONTINUOUS
  62
7
 10
294.857
 20
664.714
 40
1.25
 50
180
 51
360
  0
ARC
  8
1
  6
CONTINUOUS
  62
7
 10
294.857
 20
664.714
 40
1.25
 50
0
 51
180
  0
ARC
  8
1
  6
CONTINUOUS
  62
7
 10
1171.95
 20
1262.99
 40
1.25
 50
90
 51
270
  0
ARC
  8
1
  6
CONTINUOUS
  62
7
 10
1171.95
 20
1262.99
 40
1.25
 50
270
 51
450
  0
ARC
  8
1
  6
CONTINUOUS
  62
7
 10
1171.95
 20
852.986
 40
1.25
 50
270
 51
450
  0
ARC
  8
1
  6
CONTINUOUS
  62
7
 10
1171.95
 20
852.986
 40
1.25
 50
90
 51
270
  0
ARC
  8
1
  6
CONTINUOUS
  62
7
 10
1087.65
 20
1177.99
 40
1.25
 50
90
 51
270
  0
ARC
  8
1
  6
CONTINUOUS
  62
7
 10
1087.65
 20
1177.99
 40
1.25
 50
270
 51
450
  0
ARC
  8
1
  6
CONTINUOUS
  62
7
 10
1087.65
 20
937.986
 40
1.25
 50
270
 51
450
  0
ARC
  8
1
  6
CONTINUOUS
  62
7
 10
1087.65
 20
937.986
 40
1.25
 50
90
 51
270
  0
ARC
  8
1
  6
CONTINUOUS
  62
7
 10
1087.65
 20
1262.99
 40
1.25
 50
90
 51
270
  0
ARC
  8
1
  6
CONTINUOUS
  62
7
 10
1087.65
 20
1262.99
 40
1.25
 50
270
 51
450
  0
ARC
  8
1
  6
CONTINUOUS
  62
7
 10
1087.65
 20
1177.99
 40
1.25
 50
270
 51
450
  0
ARC
  8
1
  6
CONTINUOUS
  62
7
 10
1087.65
 20
1177.99
 40
1.25
 50
90
 51
270
  0
ARC
  8
1
  6
CONTINUOUS
  62
7
 10
1087.65
 20
852.986
 40
1.25
 50
270
 51
450
  0
ARC
  8
1
  6
CONTINUOUS
  62
7
 10
1087.65
 20
852.986
 40
1.25
 50
90
 51
270
  0
ARC
  8
1
  6
CONTINUOUS
  62
7
 10
1087.65
 20
937.986
 40
1.25
 50
90
 51
270
  0
ARC
  8
1
  6
CONTINUOUS
  62
7
 10
1087.65
 20
937.986
 40
1.25
 50
270
 51
450
  0
ARC
  8
1
  6
CONTINUOUS
  62
7
 10
868.857
 20
664.714
 40
1.25
 50
180
 51
360
  0
ARC
  8
1
  6
CONTINUOUS
  62
7
 10
868.857
 20
664.714
 40
1.25
 50
0
 51
180
  0
ARC
  8
1
  6
CONTINUOUS
  62
7
 10
977.857
 20
664.714
 40
1.25
 50
0
 51
180
  0
ARC
  8
1
  6
CONTINUOUS
  62
7
 10
977.857
 20
664.714
 40
1.25
 50
180
 51
360
  0
ARC
  8
1
  6
CONTINUOUS
  62
7
 10
846.857
 20
1333.35
 40
1.25
 50
180
 51
360
  0
ARC
  8
1
  6
CONTINUOUS
  62
7
 10
846.857
 20
1333.35
 40
1.25
 50
0
 51
180
  0
ARC
  8
1
  6
CONTINUOUS
  62
7
 10
868.857
 20
1333.35
 40
1.25
 50
0
 51
180
  0
ARC
  8
1
  6
CONTINUOUS
  62
7
 10
868.857
 20
1333.35
 40
1.25
 50
180
 51
360
  0
ARC
  8
1
  6
CONTINUOUS
  62
7
 10
845.607
 20
1333.35
 40
1.25
 50
0
 51
180
  0
ARC
  8
1
  6
CONTINUOUS
  62
7
 10
845.607
 20
1333.35
 40
1.25
 50
180
 51
360
  0
ARC
  8
1
  6
CONTINUOUS
  62
7
 10
846.857
 20
1333.35
 40
1.25
 50
180
 51
360
  0
ARC
  8
1
  6
CONTINUOUS
  62
7
 10
846.857
 20
1333.35
 40
1.25
 50
0
 51
180
  0
ARC
  8
1
  6
CONTINUOUS
  62
7
 10
810.607
 20
1333.35
 40
1.25
 50
180
 51
360
  0
ARC
  8
1
  6
CONTINUOUS
  62
7
 10
810.607
 20
1333.35
 40
1.25
 50
0
 51
180
  0
ARC
  8
1
  6
CONTINUOUS
  62
7
 10
845.607
 20
1333.35
 40
1.25
 50
0
 51
180
  0
ARC
  8
1
  6
CONTINUOUS
  62
7
 10
845.607
 20
1333.35
 40
1.25
 50
180
 51
360
  0
ARC
  8
1
  6
CONTINUOUS
  62
7
 10
809.357
 20
1333.35
 40
1.25
 50
0
 51
180
  0
ARC
  8
1
  6
CONTINUOUS
  62
7
 10
809.357
 20
1333.35
 40
1.25
 50
180
 51
360
  0
ARC
  8
1
  6
CONTINUOUS
  62
7
 10
810.607
 20
1333.35
 40
1.25
 50
180
 51
360
  0
ARC
  8
1
  6
CONTINUOUS
  62
7
 10
810.607
 20
1333.35
 40
1.25
 50
0
 51
180
  0
ARC
  8
1
  6
CONTINUOUS
  62
7
 10
354.357
 20
1333.35
 40
1.25
 50
180
 51
360
  0
ARC
  8
1
  6
CONTINUOUS
  62
7
 10
354.357
 20
1333.35
 40
1.25
 50
0
 51
180
  0
ARC
  8
1
  6
CONTINUOUS
  62
7
 10
809.357
 20
1333.35
 40
1.25
 50
0
 51
180
  0
ARC
  8
1
  6
CONTINUOUS
  62
7
 10
809.357
 20
1333.35
 40
1.25
 50
180
 51
360
  0
ARC
  8
1
  6
CONTINUOUS
  62
7
 10
353.107
 20
1333.35
 40
1.25
 50
0
 51
180
  0
ARC
  8
1
  6
CONTINUOUS
  62
7
 10
353.107
 20
1333.35
 40
1.25
 50
180
 51
360
  0
ARC
  8
1
  6
CONTINUOUS
  62
7
 10
354.357
 20
1333.35
 40
1.25
 50
180
 51
360
  0
ARC
  8
1
  6
CONTINUOUS
  62
7
 10
354.357
 20
1333.35
 40
1.25
 50
0
 51
180
  0
ARC
  8
1
  6
CONTINUOUS
  62
7
 10
318.107
 20
1333.35
 40
1.25
 50
180
 51
360
  0
ARC
  8
1
  6
CONTINUOUS
  62
7
 10
318.107
 20
1333.35
 40
1.25
 50
0
 51
180
  0
ARC
  8
1
  6
CONTINUOUS
  62
7
 10
353.107
 20
1333.35
 40
1.25
 50
0
 51
180
  0
ARC
  8
1
  6
CONTINUOUS
  62
7
 10
353.107
 20
1333.35
 40
1.25
 50
180
 51
360
  0
ARC
  8
1
  6
CONTINUOUS
  62
7
 10
316.857
 20
1333.35
 40
1.25
 50
0
 51
180
  0
ARC
  8
1
  6
CONTINUOUS
  62
7
 10
316.857
 20
1333.35
 40
1.25
 50
180
 51
360
  0
ARC
  8
1
  6
CONTINUOUS
  62
7
 10
318.107
 20
1333.35
 40
1.25
 50
180
 51
360
  0
ARC
  8
1
  6
CONTINUOUS
  62
7
 10
318.107
 20
1333.35
 40
1.25
 50
0
 51
180
  0
ARC
  8
1
  6
CONTINUOUS
  62
7
 10
294.857
 20
1333.35
 40
1.25
 50
180
 51
360
  0
ARC
  8
1
  6
CONTINUOUS
  62
7
 10
294.857
 20
1333.35
 40
1.25
 50
0
 51
180
  0
ARC
  8
1
  6
CONTINUOUS
  62
7
 10
316.857
 20
1333.35
 40
1.25
 50
0
 51
180
  0
ARC
  8
1
  6
CONTINUOUS
  62
7
 10
316.857
 20
1333.35
 40
1.25
 50
180
 51
360
  0
ARC
  8
1
  6
CONTINUOUS
  62
7
 10
196.897
 20
1240.99
 40
1.25
 50
270
 51
450
  0
ARC
  8
1
  6
CONTINUOUS
  62
7
 10
196.897
 20
1240.99
 40
1.25
 50
90
 51
270
  0
ARC
  8
1
  6
CONTINUOUS
  62
7
 10
196.897
 20
1262.99
 40
1.25
 50
90
 51
270
  0
ARC
  8
1
  6
CONTINUOUS
  62
7
 10
196.897
 20
1262.99
 40
1.25
 50
270
 51
450
  0
ARC
  8
1
  6
CONTINUOUS
  62
7
 10
196.897
 20
1237.99
 40
1.25
 50
90
 51
270
  0
ARC
  8
1
  6
CONTINUOUS
  62
7
 10
196.897
 20
1237.99
 40
1.25
 50
270
 51
450
  0
ARC
  8
1
  6
CONTINUOUS
  62
7
 10
196.897
 20
1240.99
 40
1.25
 50
270
 51
450
  0
ARC
  8
1
  6
CONTINUOUS
  62
7
 10
196.897
 20
1240.99
 40
1.25
 50
90
 51
270
  0
ARC
  8
1
  6
CONTINUOUS
  62
7
 10
196.897
 20
877.986
 40
1.25
 50
270
 51
450
  0
ARC
  8
1
  6
CONTINUOUS
  62
7
 10
196.897
 20
877.986
 40
1.25
 50
90
 51
270
  0
ARC
  8
1
  6
CONTINUOUS
  62
7
 10
196.897
 20
1237.99
 40
1.25
 50
90
 51
270
  0
ARC
  8
1
  6
CONTINUOUS
  62
7
 10
196.897
 20
1237.99
 40
1.25
 50
270
 51
450
  0
ARC
  8
1
  6
CONTINUOUS
  62
7
 10
196.897
 20
874.986
 40
1.25
 50
90
 51
270
  0
ARC
  8
1
  6
CONTINUOUS
  62
7
 10
196.897
 20
874.986
 40
1.25
 50
270
 51
450
  0
ARC
  8
1
  6
CONTINUOUS
  62
7
 10
196.897
 20
877.986
 40
1.25
 50
270
 51
450
  0
ARC
  8
1
  6
CONTINUOUS
  62
7
 10
196.897
 20
877.986
 40
1.25
 50
90
 51
270
  0
ARC
  8
1
  6
CONTINUOUS
  62
7
 10
196.897
 20
852.986
 40
1.25
 50
270
 51
450
  0
ARC
  8
1
  6
CONTINUOUS
  62
7
 10
196.897
 20
852.986
 40
1.25
 50
90
 51
270
  0
ARC
  8
1
  6
CONTINUOUS
  62
7
 10
196.897
 20
874.986
 40
1.25
 50
90
 51
270
  0
ARC
  8
1
  6
CONTINUOUS
  62
7
 10
196.897
 20
874.986
 40
1.25
 50
270
 51
450
  0
ARC
  8
1
  6
CONTINUOUS
  62
7
 10
348.857
 20
987.986
 40
30
 50
180
 51
270
  0
ARC
  8
1
  6
CONTINUOUS
  62
7
 10
348.857
 20
1127.99
 40
30
 50
90
 51
180
  0
ARC
  8
1
  6
CONTINUOUS
  62
7
 10
408.857
 20
1127.99
 40
30
 50
0
 51
90
  0
ARC
  8
1
  6
CONTINUOUS
  62
7
 10
408.857
 20
987.986
 40
30
 50
270
 51
360
  0
ARC
  8
1
  6
CONTINUOUS
  62
7
 10
807.857
 20
1068.05
 40
33.82
 50
90
 51
135
  0
ARC
  8
1
  6
CONTINUOUS
  62
7
 10
807.857
 20
1068.05
 40
36.82
 50
90
 51
135
  0
ARC
  8
1
  6
CONTINUOUS
  62
7
 10
696.798
 20
1098.41
 40
66.175
 50
270
 51
306.16
  0
ARC
  8
1
  6
CONTINUOUS
  62
7
 10
696.798
 20
1098.41
 40
63.175
 50
270
 51
302.26
  0
ARC
  8
1
  6
CONTINUOUS
  62
7
 10
807.857
 20
1068.05
 40
42.37
 50
90
 51
135
  0
ARC
  8
1
  6
CONTINUOUS
  62
7
 10
807.857
 20
1068.05
 40
46.37
 50
90
 51
135
  0
ARC
  8
1
  6
CONTINUOUS
  62
7
 10
730.752
 20
1145.16
 40
66.675
 50
270
 51
315
  0
ARC
  8
1
  6
CONTINUOUS
  62
7
 10
730.752
 20
1145.16
 40
62.675
 50
270
 51
315
  0
ARC
  8
1
  6
CONTINUOUS
  62
7
 10
641.857
 20
1083.99
 40
1
 50
90
 51
180
  0
ARC
  8
1
  6
CONTINUOUS
  62
7
 10
641.857
 20
1076.99
 40
1
 50
180
 51
270
  0
ARC
  8
1
  6
CONTINUOUS
  62
7
 10
689.857
 20
1080.49
 40
5
 50
323.13
 51
396.87
  0
ARC
  8
1
  6
CONTINUOUS
  62
7
 10
693.232
 20
1084.99
 40
1.625
 50
292.62
 51
427.38
  0
ARC
  8
1
  6
CONTINUOUS
  62
7
 10
693.232
 20
1075.99
 40
1.625
 50
292.62
 51
427.38
  0
ARC
  8
1
  6
CONTINUOUS
  62
7
 10
687.482
 20
1075.99
 40
1.625
 50
112.62
 51
247.38
  0
ARC
  8
1
  6
CONTINUOUS
  62
7
 10
687.482
 20
1084.99
 40
1.625
 50
112.62
 51
247.38
  0
ARC
  8
1
  6
CONTINUOUS
  62
7
 10
690.857
 20
1080.49
 40
5
 50
143.13
 51
216.87
  0
ARC
  8
1
  6
CONTINUOUS
  62
7
 10
591.357
 20
1033.74
 40
0.5
 50
90
 51
270
  0
ARC
  8
1
  6
CONTINUOUS
  62
7
 10
875.857
 20
1058.99
 40
5
 50
0
 51
90
  0
ARC
  8
1
  6
CONTINUOUS
  62
7
 10
872.857
 20
1107.49
 40
1
 50
90
 51
180
  0
ARC
  8
1
  6
CONTINUOUS
  62
7
 10
872.857
 20
1098.49
 40
1
 50
180
 51
270
  0
ARC
  8
1
  6
CONTINUOUS
  62
7
 10
885.857
 20
1109.49
 40
1
 50
90
 51
180
  0
ARC
  8
1
  6
CONTINUOUS
  62
7
 10
885.857
 20
1096.49
 40
1
 50
180
 51
270
  0
CIRCLE
  8
1
  6
CONTINUOUS
  62
7
 10
877.857
 20
1102.99
 40
5.5
  0
ARC
  8
1
  6
CONTINUOUS
  62
7
 10
992.857
 20
1080.99
 40
0.5
 50
270
 51
360
  0
ARC
  8
1
  6
CONTINUOUS
  62
7
 10
1013.36
 20
1098.44
 40
0.5
 50
275.57
 51
360
  0
ARC
  8
1
  6
CONTINUOUS
  62
7
 10
1013.36
 20
1107.53
 40
0.5
 50
0
 51
84.43
  0
ARC
  8
1
  6
CONTINUOUS
  62
7
 10
996.241
 20
1094.26
 40
2
 50
95.57
 51
176.21
  0
ARC
  8
1
  6
CONTINUOUS
  62
7
 10
995.357
 20
1094.17
 40
2
 50
95.57
 51
180
  0
ARC
  8
1
  6
CONTINUOUS
  62
7
 10
995.357
 20
1111.8
 40
2
 50
180
 51
264.43
  0
ARC
  8
1
  6
CONTINUOUS
  62
7
 10
996.241
 20
1111.71
 40
2
 50
183.79
 51
264.43
  0
ARC
  8
1
  6
CONTINUOUS
  62
7
 10
992.857
 20
1124.99
 40
0.5
 50
0
 51
90
  0
ARC
  8
1
  6
HIDDEN
  62
7
 10
867.857
 20
986.986
 40
1
 50
90
 51
180
  0
ARC
  8
1
  6
CONTINUOUS
  62
7
 10
897.857
 20
986.986
 40
1
 50
0
 51
90
  0
ARC
  8
1
  6
CONTINUOUS
  62
7
 10
898.357
 20
928.986
 40
1
 50
270
 51
360
  0
ARC
  8
1
  6
HIDDEN
  62
7
 10
867.357
 20
928.986
 40
1
 50
180
 51
270
  0
ARC
  8
1
  6
CONTINUOUS
  62
7
 10
996.857
 20
1017.99
 40
10
 50
210
 51
510
  0
CIRCLE
  8
1
  6
HIDDEN
  62
7
 10
512.857
 20
1057.99
 40
27
  0
CIRCLE
  8
1
  6
HIDDEN
  62
7
 10
512.857
 20
1057.99
 40
10
  0
CIRCLE
  8
1
  6
HIDDEN
  62
7
 10
512.857
 20
1057.99
 40
30
  0
ARC
  8
1
  6
HIDDEN
  62
7
 10
790.89
 20
1140.35
 40
71.335
 50
292.21
 51
316.76
  0
ARC
  8
1
  6
HIDDEN
  62
7
 10
790.89
 20
975.617
 40
71.335
 50
43.24
 51
67.79
  0
ARC
  8
1
  6
HIDDEN
  62
7
 10
600.857
 20
1057.99
 40
13
 50
90
 51
124.03
  0
ARC
  8
1
  6
HIDDEN
  62
7
 10
600.857
 20
1057.99
 40
13
 50
235.97
 51
270
  0
ARC
  8
1
  6
HIDDEN
  62
7
 10
587.857
 20
1102.49
 40
13
 50
145.97
 51
180
  0
ARC
  8
1
  6
HIDDEN
  62
7
 10
587.857
 20
1102.49
 40
13
 50
0
 51
34.03
  0
ARC
  8
1
  6
HIDDEN
  62
7
 10
587.857
 20
1013.49
 40
13
 50
325.97
 51
360
  0
ARC
  8
1
  6
HIDDEN
  62
7
 10
587.857
 20
1013.49
 40
13
 50
180
 51
214.03
  0
ARC
  8
1
  6
CONTINUOUS
  62
7
 10
374.357
 20
1002.99
 40
5
 50
270
 51
360
  0
ARC
  8
1
  6
CONTINUOUS
  62
7
 10
374.357
 20
1112.99
 40
5
 50
0
 51
90
  0
TEXT
  8
11
  62
3
  7
STANDARD
 10
463.771
 20
-19240
 40
1500
 50
0
  1
2005/5/24
 41
0.5
 51
0
  0
TEXT
  8
11
  62
3
  7
STANDARD
 10
68338.8
 20
-8740.04
 40
1250
 50
0
  1
No.
 41
0.5
 51
0
  0
TEXT
  8
11
  62
3
  7
STANDARD
 10
-174911
 20
-8740.04
 40
1250
 50
0
  1
MEMO
 41
0.5
 51
0
  0
TEXT
  8
11
  62
3
  7
STANDARD
 10
-116811
 20
-8740.04
 40
1250
 50
0
  1
DATE REVISED
 41
0.5
 51
0
  0
TEXT
  8
11
  62
3
  7
STANDARD
 10
-58161.2
 20
-8740.04
 40
1250
 50
0
  1
D
 41
0.5
 51
0
  0
TEXT
  8
11
  62
3
  7
STANDARD
 10
-87911.2
 20
-8740.04
 40
1250
 50
0
  1
P
 41
0.5
 51
0
  0
TEXT
  8
11
  62
3
  7
STANDARD
 10
-6911.23
 20
-16990
 40
1250
 50
0
  1
DATE
 41
0.5
 51
0
  0
TEXT
  8
11
  62
3
  7
STANDARD
 10
-6911.23
 20
-8740.04
 40
1250
 50
0
  1
SCALE
 41
0.5
 51
0
  0
TEXT
  8
11
  62
3
  7
STANDARD
 10
15088.8
 20
-8740.04
 40
1250
 50
0
  1
TITLE
 41
0.5
 51
0
  0
TEXT
  8
7
  62
6
  7
STANDARD
 10
-49124.3
 20
-14482.6
 40
2000
 50
0
  1
株式会社
 41
0.9575
 51
0
  0
TEXT
  8
7
  62
6
  7
STANDARD
 10
-41464.3
 20
-14482.6
 40
2000
 50
0
  1
 
 41
0.5
 51
0
  0
TEXT
  8
7
  62
6
  7
STANDARD
 10
-40464.3
 20
-14482.6
 40
2000
 50
0
  1
アーバンデザイン都市設計研究所
 41
0.9575
 51
0
  0
TEXT
  8
11
  62
2
  7
STANDARD
 10
19145
 20
-12465
 40
2000
 50
0
  1
ＮＬ西宮高須町１丁目店　新築工事
 41
0.845
 51
0
  0
TEXT
  8
11
  62
2
  7
STANDARD
 10
33059.6
 20
-18847.1
 40
3000
 50
0
  1
　配　　置　　図
 41
0.612167
 51
0
  0
TEXT
  8
17
  62
3
  7
STANDARD
 10
1355.45
 20
79.3237
 40
10
 50
0
  1
型　式
 41
1
 51
0
  0
TEXT
  8
17
  62
3
  7
STANDARD
 10
1355.45
 20
121.748
 40
10
 50
0
  1
製品名
 41
1
 51
0
  0
TEXT
  8
1
  62
3
  7
STANDARD
 10
1678.2
 20
80.1369
 40
10
 50
0
  1
日　付
 41
1
 51
0
  0
TEXT
  8
1
  62
3
  7
STANDARD
 10
1679.89
 20
122.561
 40
10
 50
0
  1
縮　尺
 41
1
 51
0
  0
TEXT
  8
1
  62
3
  7
STANDARD
 10
1815.09
 20
124.264
 40
10
 50
0
  1
ガス種
 41
1
 51
0
  0
TEXT
  8
1
  62
3
  7
STANDARD
 10
1815.09
 20
82.1387
 40
10
 50
0
  1
ガス消費量
 41
1
 51
0
  0
TEXT
  8
17
  62
3
  7
STANDARD
 10
1964.09
 20
121.748
 40
10
 50
0
  1
ＮＯ
 41
1
 51
0
  0
TEXT
  8
17
  62
3
  7
STANDARD
 10
114.914
 20
121.748
 40
10
 50
0
  1
仕　様
 41
1
 51
0
  0
TEXT
  8
1
  62
7
  7
STANDARD
 10
1018.95
 20
57.1352
 40
40
 50
0
  1
アイジィエー
 41
1
 51
0
  0
TEXT
  8
1
  62
4
  7
STANDARD
 10
851.523
 20
64.3002
 40
25
 50
0
  1
有
 41
1
 51
0
  0
TEXT
  8
1
  62
4
  7
STANDARD
 10
876.523
 20
64.3002
 40
25
 50
0
  1
 
 41
0.5
 51
0
  0
TEXT
  8
1
  62
4
  7
STANDARD
 10
889.023
 20
64.3002
 40
25
 50
0
  1
限
 41
1
 51
0
  0
TEXT
  8
1
  62
4
  7
STANDARD
 10
914.023
 20
64.3002
 40
25
 50
0
  1
 
 41
0.5
 51
0
  0
TEXT
  8
1
  62
4
  7
STANDARD
 10
926.523
 20
64.3002
 40
25
 50
0
  1
会
 41
1
 51
0
  0
TEXT
  8
1
  62
4
  7
STANDARD
 10
951.523
 20
64.3002
 40
25
 50
0
  1
 
 41
0.5
 51
0
  0
TEXT
  8
1
  62
4
  7
STANDARD
 10
964.023
 20
64.3002
 40
25
 50
0
  1
社
 41
1
 51
0
  0
TEXT
  8
1
  62
4
  7
STANDARD
 10
919.013
 20
106.467
 40
22.5
 50
0
  1
『日本の美味しいを創る』
 41
1
 51
0
  0
TEXT
  8
1
  62
3
  7
STANDARD
 10
192.409
 20
114.383
 40
16
 50
0
  1
立ち消え安全装置付、連続スパーク、サーモスタット付
 41
1
 51
0
  0
TEXT
  8
1
  62
3
  7
STANDARD
 10
1780.65
 20
160.226
 40
16
 50
0
  1
（　）内の数値は公差を示す。
 41
1
 51
0
  0
TEXT
  8
1
  62
3
  7
STANDARD
 10
1639.24
 20
868.233
 40
16
 50
0
  1
テーブル開口寸法
 41
1
 51
0
  0
TEXT
  8
1
  62
3
  7
STANDARD
 10
1736.12
 20
224.293
 40
16
 50
0
  1
９．５
 41
1
 51
0
  0
TEXT
  8
1
  62
3
  7
STANDARD
 10
1784.12
 20
224.293
 40
16
 50
0
  1
mm
 41
0.5
 51
0
  0
TEXT
  8
1
  62
3
  7
STANDARD
 10
1800.12
 20
224.293
 40
16
 50
0
  1
ホース接続口
 41
1
 51
0
  0
TEXT
  8
1
  62
3
  7
STANDARD
 10
1578.63
 20
215.814
 40
16
 50
0
  1
ＪＩＡシール
 41
1
 51
0
  0
TEXT
  8
1
  62
3
  7
STANDARD
 10
1779.22
 20
440.044
 40
16
 50
0
  1
整流板
 41
1
 51
0
  0
TEXT
  8
1
  62
3
  7
STANDARD
 10
1777.67
 20
540.501
 40
16
 50
0
  1
スペーサー
 41
1
 51
0
  0
TEXT
  8
1
  62
3
  7
STANDARD
 10
1748.77
 20
596.214
 40
16
 50
0
  1
操作シール
 41
1
 51
0
  0
TEXT
  8
1
  62
3
  7
STANDARD
 10
1517.1
 20
281.902
 40
16
 50
0
  1
368
 41
0.5
 51
0
  0
TEXT
  8
1
  62
3
  7
STANDARD
 10
1711.91
 20
249.698
 40
16
 50
0
  1
11
 41
0.5
 51
0
  0
TEXT
  8
1
  62
3
  7
STANDARD
 10
1742.76
 20
280.58
 40
16
 50
0
  1
10
 41
0.5
 51
0
  0
TEXT
  8
1
  62
3
  7
STANDARD
 10
1517.1
 20
318.728
 40
16
 50
0
  1
305
 41
0.5
 51
0
  0
TEXT
  8
1
  62
3
  7
STANDARD
 10
1303.94
 20
280.58
 40
16
 50
0
  1
10
 41
0.5
 51
0
  0
TEXT
  8
1
  62
3
  7
STANDARD
 10
1336.88
 20
249.698
 40
16
 50
0
  1
11
 41
0.5
 51
0
  0
TEXT
  8
1
  62
3
  7
STANDARD
 10
850.066
 20
254.466
 40
16
 50
0
  1
21
 41
0.5
 51
0
  0
TEXT
  8
1
  62
3
  7
STANDARD
 10
817.441
 20
281.902
 40
16
 50
0
  1
40
 41
0.5
 51
0
  0
TEXT
  8
1
  62
3
  7
STANDARD
 10
545.191
 20
281.902
 40
16
 50
0
  1
492
 41
0.5
 51
0
  0
TEXT
  8
1
  62
3
  7
STANDARD
 10
295.56
 20
252.233
 40
16
 50
0
  1
21
 41
0.5
 51
0
  0
TEXT
  8
1
  62
3
  7
STANDARD
 10
1082.65
 20
404.545
 40
16
 50
90
  1
90
 41
0.5
 51
0
  0
TEXT
  8
1
  62
3
  7
STANDARD
 10
1166.95
 20
427.295
 40
16
 50
90
  1
150
 41
0.5
 51
0
  0
TEXT
  8
1
  62
3
  7
STANDARD
 10
1166.15
 20
461.074
 40
16
 50
90
  1
（±
 41
1
 51
0
  0
TEXT
  8
1
  62
3
  7
STANDARD
 10
1166.15
 20
493.074
 40
16
 50
90
  1
2
 41
0.5
 51
0
  0
TEXT
  8
1
  62
3
  7
STANDARD
 10
1166.15
 20
501.074
 40
16
 50
90
  1
）
 41
1
 51
0
  0
TEXT
  8
1
  62
3
  7
STANDARD
 10
1161.6
 20
595.395
 40
16
 50
0
  1
連続スパーク点火コック
 41
1
 51
0
  0
TEXT
  8
1
  62
3
  7
STANDARD
 10
857.442
 20
211.054
 40
16
 50
0
  1
防火認定シール
 41
1
 51
0
  0
TEXT
  8
1
  62
3
  7
STANDARD
 10
735.828
 20
567.645
 40
16
 50
0
  1
複合断熱構造
 41
1
 51
0
  0
TEXT
  8
1
  62
3
  7
STANDARD
 10
1081.9
 20
638.755
 40
16
 50
0
  1
点火装置カバー
 41
1
 51
0
  0
TEXT
  8
1
  62
3
  7
STANDARD
 10
1007.92
 20
298.133
 40
16
 50
0
  1
乾電池ケース
 41
1
 51
0
  0
TEXT
  8
1
  62
3
  7
STANDARD
 10
957.465
 20
251.451
 40
16
 50
0
  1
型式名盤
 41
1
 51
0
  0
TEXT
  8
1
  62
3
  7
STANDARD
 10
735.828
 20
589.731
 40
16
 50
0
  1
本体（オールステンレス）
 41
1
 51
0
  0
TEXT
  8
1
  62
3
  7
STANDARD
 10
1185.99
 20
561.146
 40
16
 50
0
  1
保温切替レバー
 41
1
 51
0
  0
TEXT
  8
1
  62
3
  7
STANDARD
 10
184.397
 20
853.569
 40
16
 50
90
  1
22
 41
0.5
 51
0
  0
TEXT
  8
1
  62
3
  7
STANDARD
 10
217.269
 20
886.468
 40
16
 50
90
  1
3
 41
0.5
 51
0
  0
TEXT
  8
1
  62
3
  7
STANDARD
 10
191.897
 20
1003.82
 40
16
 50
90
  1
鉄板寸法　
 41
1
 51
0
  0
TEXT
  8
1
  62
3
  7
STANDARD
 10
191.897
 20
1083.82
 40
16
 50
90
  1
360
 41
0.5
 51
0
  0
TEXT
  8
1
  62
3
  7
STANDARD
 10
215.151
 20
1221
 40
16
 50
90
  1
3
 41
0.5
 51
0
  0
TEXT
  8
1
  62
3
  7
STANDARD
 10
184.397
 20
1241.57
 40
16
 50
90
  1
22
 41
0.5
 51
0
  0
TEXT
  8
1
  62
3
  7
STANDARD
 10
270.035
 20
1313.16
 40
16
 50
0
  1
22
 41
0.5
 51
0
  0
TEXT
  8
1
  62
3
  7
STANDARD
 10
274.977
 20
1343.36
 40
16
 50
0
  1
1.25
 41
0.5
 51
0
  0
TEXT
  8
1
  62
3
  7
STANDARD
 10
324.877
 20
1313.16
 40
16
 50
0
  1
35
 41
0.5
 51
0
  0
TEXT
  8
1
  62
3
  7
STANDARD
 10
343.304
 20
1343.72
 40
16
 50
0
  1
1.25
 41
0.5
 51
0
  0
TEXT
  8
1
  62
3
  7
STANDARD
 10
531.441
 20
1338.35
 40
16
 50
0
  1
鉄板寸法
 41
1
 51
0
  0
TEXT
  8
1
  62
3
  7
STANDARD
 10
595.441
 20
1338.35
 40
16
 50
0
  1
 455
 41
0.5
 51
0
  0
TEXT
  8
1
  62
3
  7
STANDARD
 10
766.219
 20
1340.62
 40
16
 50
0
  1
1.25
 41
0.5
 51
0
  0
TEXT
  8
1
  62
3
  7
STANDARD
 10
818.721
 20
1314.54
 40
16
 50
0
  1
35
 41
0.5
 51
0
  0
TEXT
  8
1
  62
3
  7
STANDARD
 10
831.316
 20
1341.11
 40
16
 50
0
  1
1.25
 41
0.5
 51
0
  0
TEXT
  8
1
  62
3
  7
STANDARD
 10
877.855
 20
1316.53
 40
16
 50
0
  1
22
 41
0.5
 51
0
  0
TEXT
  8
1
  62
3
  7
STANDARD
 10
906.691
 20
669.714
 40
16
 50
0
  1
109
 41
0.5
 51
0
  0
TEXT
  8
1
  62
3
  7
STANDARD
 10
1082.65
 20
885.069
 40
16
 50
90
  1
85
 41
0.5
 51
0
  0
TEXT
  8
1
  62
3
  7
STANDARD
 10
1082.65
 20
1210.07
 40
16
 50
90
  1
85
 41
0.5
 51
0
  0
TEXT
  8
1
  62
3
  7
STANDARD
 10
1082.65
 20
1041.32
 40
16
 50
90
  1
240
 41
0.5
 51
0
  0
TEXT
  8
1
  62
3
  7
STANDARD
 10
1166.95
 20
1041.32
 40
16
 50
90
  1
410
 41
0.5
 51
0
  0
TEXT
  8
1
  62
3
  7
STANDARD
 10
565.191
 20
669.714
 40
16
 50
0
  1
574
 41
0.5
 51
0
  0
TEXT
  8
1
  62
3
  7
STANDARD
 10
517.249
 20
1146.15
 40
16
 50
0
  1
（±
 41
1
 51
0
  0
TEXT
  8
1
  62
3
  7
STANDARD
 10
549.249
 20
1146.15
 40
16
 50
0
  1
1
 41
0.5
 51
0
  0
TEXT
  8
1
  62
3
  7
STANDARD
 10
557.249
 20
1146.15
 40
16
 50
0
  1
）
 41
1
 51
0
  0
TEXT
  8
1
  62
3
  7
STANDARD
 10
639.014
 20
1338.21
 40
16
 50
0
  1
（±
 41
1
 51
0
  0
TEXT
  8
1
  62
3
  7
STANDARD
 10
671.014
 20
1338.21
 40
16
 50
0
  1
2
 41
0.5
 51
0
  0
TEXT
  8
1
  62
3
  7
STANDARD
 10
679.014
 20
1338.21
 40
16
 50
0
  1
）
 41
1
 51
0
  0
TEXT
  8
1
  62
3
  7
STANDARD
 10
191.228
 20
1116.69
 40
16
 50
90
  1
（±
 41
1
 51
0
  0
TEXT
  8
1
  62
3
  7
STANDARD
 10
191.228
 20
1148.69
 40
16
 50
90
  1
2
 41
0.5
 51
0
  0
TEXT
  8
1
  62
3
  7
STANDARD
 10
191.228
 20
1156.69
 40
16
 50
90
  1
）
 41
1
 51
0
  0
TEXT
  8
1
  62
3
  7
STANDARD
 10
605.053
 20
670.241
 40
16
 50
0
  1
（±
 41
1
 51
0
  0
TEXT
  8
1
  62
3
  7
STANDARD
 10
637.053
 20
670.241
 40
16
 50
0
  1
2
 41
0.5
 51
0
  0
TEXT
  8
1
  62
3
  7
STANDARD
 10
645.053
 20
670.241
 40
16
 50
0
  1
）
 41
1
 51
0
  0
TEXT
  8
1
  62
3
  7
STANDARD
 10
1165.88
 20
1081.44
 40
16
 50
90
  1
（±
 41
1
 51
0
  0
TEXT
  8
1
  62
3
  7
STANDARD
 10
1165.88
 20
1113.44
 40
16
 50
90
  1
2
 41
0.5
 51
0
  0
TEXT
  8
1
  62
3
  7
STANDARD
 10
1165.88
 20
1121.44
 40
16
 50
90
  1
）
 41
1
 51
0
  0
TEXT
  8
1
  62
3
  7
STANDARD
 10
513.369
 20
1163.55
 40
16
 50
0
  1
９．０ｍｍ縁付鉄板（ミガキ）
 41
1
 51
0
  0
TEXT
  8
1
  62
3
  7
STANDARD
 10
643.745
 20
1300.04
 40
16
 50
0
  1
バーナー
 41
1
 51
0
  0
TEXT
  8
1
  62
3
  7
STANDARD
 10
480
 20
1299.43
 40
16
 50
0
  1
排気口
 41
1
 51
0
  0
TEXT
  8
1
  62
3
  7
STANDARD
 10
971.81
 20
1301.67
 40
16
 50
0
  1
パイロットバーナー
 41
1
 51
0
  0
TEXT
  8
1
  62
3
  7
STANDARD
 10
898.573
 20
1222.75
 40
16
 50
0
  1
排気口
 41
1
 51
0
  0
TEXT
  8
1
  62
3
  7
STANDARD
 10
580.111
 20
787.196
 40
16
 50
0
  1
カス受け
 41
1
 51
0
  0
TEXT
  8
1
  62
3
  7
STANDARD
 10
1004.11
 20
770.774
 40
16
 50
0
  1
立消え安全装置
 41
1
 51
0
  0
TEXT
  8
1
  62
3
  7
STANDARD
 10
1116.11
 20
770.774
 40
16
 50
0
  1
 
 41
0.5
 51
0
  0
TEXT
  8
1
  62
3
  7
STANDARD
 10
1124.11
 20
770.774
 40
16
 50
0
  1
感熱部
 41
1
 51
0
  0
TEXT
  8
1
  62
3
  7
STANDARD
 10
1006.33
 20
730.697
 40
16
 50
0
  1
温度センサー
 41
1
 51
0
  0
TEXT
  8
1
  62
3
  7
STANDARD
 10
1131.63
 20
820.213
 40
16
 50
0
  1
サーモスタット
 41
1
 51
0
  0
TEXT
  8
1
  62
3
  7
STANDARD
 10
1703.07
 20
802.035
 40
16
 50
0
  1
545 (-0+5)
 41
0.5
 51
0
  0
TEXT
  8
1
  62
3
  7
STANDARD
 10
1867.64
 20
827.133
 40
16
 50
90
  1
395 (-0+5)
 41
0.5
 51
0
  0
TEXT
  8
1
  62
2
  7
STANDARD
 10
1718.01
 20
106.033
 40
16
 50
0
  1
１：５
 41
1
 51
0
  0
TEXT
  8
1
  62
2
  7
STANDARD
 10
1716.43
 20
60.2229
 40
10
 50
0
  1
０８．０６．２８．
 41
1
 51
0
  0
TEXT
  8
1
  62
3
  7
STANDARD
 10
1864.39
 20
60.0773
 40
16
 50
0
  1
２．３
 41
1
 51
0
  0
TEXT
  8
1
  62
3
  7
STANDARD
 10
1912.39
 20
60.0773
 40
16
 50
0
  1
 kw
 41
0.5
 51
0
  0
TEXT
  8
1
  62
3
  7
STANDARD
 10
1445.05
 20
101.927
 40
25
 50
0
  1
お好み焼器
 41
1
 51
0
  0
TEXT
  8
1
  62
3
  7
STANDARD
 10
1429.89
 20
62.0285
 40
20
 50
0
  1
ＩＧＯ－４５ＳＴ
 41
1
 51
0
  0
TEXT
  8
1
  62
3
  7
STANDARD
 10
192.988
 20
86.8792
 40
16
 50
0
  1
574x410x150
 41
0.5
 51
0
  0
ENDSEC
  0
EOF
