  0
SECTION
  2
HEADER
  9
$EXTMIN
 10
-0.258621
 20
0
  9
$EXTMAX
 10
2100
 20
1485
  9
$LIMMIN
 10
0
 20
0
  9
$LIMMAX
 10
2100
 20
1485
  9
$LTSCALE
 40
5.000000
  0
ENDSEC
  0
SECTION
  2
TABLES
  0
TABLE
  2
LTYPE
 70
8
  0
LTYPE
  2
DOT
  3
点線
 70
    64
 72
    65
 73
     2
 40
2
 49
1
 49
-1
  0
LTYPE
  2
HIDDEN
  3
破線
 70
    64
 72
    65
 73
     2
 40
3
 49
2
 49
-1
  0
LTYPE
  2
DASHED
  3
長破線
 70
    64
 72
    65
 73
     2
 40
7
 49
6
 49
-1
  0
LTYPE
  2
DASHDOT
  3
一点鎖線
 70
    64
 72
    65
 73
     4
 40
43
 49
40
 49
-1
 49
1
 49
-1
  0
LTYPE
  2
CENTER
  3
長一点鎖線
 70
    64
 72
    65
 73
     4
 40
63
 49
60
 49
-1
 49
1
 49
-1
  0
LTYPE
  2
DIVIDE
  3
二点鎖線
 70
    64
 72
    65
 73
     6
 40
45
 49
40
 49
-1
 49
1
 49
-1
 49
1
 49
-1
  0
LTYPE
  2
PHANTOM
  3
長二点鎖線
 70
    64
 72
    65
 73
     6
 40
65
 49
60
 49
-1
 49
1
 49
-1
 49
1
 49
-1
  0
ENDTAB
  0
TABLE
  2
LAYER
 70
     2
  0
LAYER
  2
1
 70
     0
 62
     7
  6
CONTINUOUS
  0
LAYER
  2
17
 70
     0
 62
     7
  6
CONTINUOUS
  0
ENDTAB
  0
TABLE
  2
STYLE
 70
4
  0
STYLE
  2
STANDARD
 70
    64
 40
0.0
 41
1.0
 42
0.0
 50
0.0
 71
     0
  3
txt
  4
bigfont
  0
ENDTAB
  0
ENDSEC
  0
SECTION
  2
BLOCKS
  0
ENDSEC
  0
SECTION
  2
ENTITIES
  0
LINE
  8
1
  6
CONTINUOUS
  62
1
 10
2100
 20
1485
 11
0
 21
1485
  0
LINE
  8
1
  6
CONTINUOUS
  62
1
 10
2100
 20
0
 11
0
 21
0
  0
LINE
  8
1
  6
CONTINUOUS
  62
1
 10
2099.74
 20
0
 11
2099.74
 21
1485
  0
LINE
  8
1
  6
CONTINUOUS
  62
1
 10
-0.258621
 20
0
 11
-0.258621
 21
1485
  0
LINE
  8
1
  6
CONTINUOUS
  62
6
 10
99.7414
 20
1417.5
 11
2039.66
 21
1417.5
  0
LINE
  8
17
  6
CONTINUOUS
  62
2
 10
99.7414
 20
137.415
 11
2039.66
 21
137.415
  0
LINE
  8
1
  6
CONTINUOUS
  62
6
 10
99.7414
 20
52.5667
 11
2039.66
 21
52.5667
  0
LINE
  8
17
  6
CONTINUOUS
  62
4
 10
99.7414
 20
109.132
 11
782.587
 21
109.132
  0
LINE
  8
17
  6
CONTINUOUS
  62
4
 10
99.7414
 20
80.8497
 11
782.587
 21
80.8497
  0
LINE
  8
17
  6
CONTINUOUS
  62
4
 10
1346.73
 20
94.9907
 11
1954.81
 21
94.9907
  0
LINE
  8
17
  6
CONTINUOUS
  62
4
 10
1671.98
 20
52.5667
 11
1671.98
 21
137.415
  0
LINE
  8
17
  6
CONTINUOUS
  62
4
 10
1813.4
 20
52.5667
 11
1813.4
 21
137.415
  0
LINE
  8
17
  6
CONTINUOUS
  62
4
 10
1954.81
 20
52.5667
 11
1954.81
 21
137.415
  0
LINE
  8
17
  6
CONTINUOUS
  62
4
 10
782.587
 20
52.5667
 11
782.587
 21
137.415
  0
LINE
  8
17
  6
CONTINUOUS
  62
4
 10
1346.73
 20
52.5667
 11
1346.73
 21
137.415
  0
LINE
  8
1
  6
CONTINUOUS
  62
6
 10
2039.66
 20
52.5667
 11
2039.66
 21
1417.5
  0
LINE
  8
1
  6
CONTINUOUS
  62
6
 10
99.7414
 20
52.5667
 11
99.7414
 21
1417.5
  0
LINE
  8
1
  6
DOT
  62
3
 10
649.804
 20
710.357
 11
649.804
 21
1223.36
  0
LINE
  8
1
  6
DOT
  62
3
 10
915.804
 20
242.857
 11
363.804
 21
242.857
  0
LINE
  8
1
  6
CONTINUOUS
  62
3
 10
363.804
 20
258.857
 11
915.804
 21
258.857
  0
LINE
  8
1
  6
CONTINUOUS
  62
3
 10
363.804
 20
258.857
 11
363.804
 21
227.857
  0
LINE
  8
1
  6
CONTINUOUS
  62
3
 10
915.804
 20
258.857
 11
915.804
 21
227.857
  0
LINE
  8
1
  6
CONTINUOUS
  62
3
 10
382.804
 20
227.857
 11
896.804
 21
227.857
  0
LINE
  8
1
  6
CONTINUOUS
  62
3
 10
964.077
 20
226.047
 11
966.804
 21
247.857
  0
LINE
  8
1
  6
CONTINUOUS
  62
3
 10
961.597
 20
223.857
 11
934.011
 21
223.857
  0
LINE
  8
1
  6
CONTINUOUS
  62
3
 10
928.804
 20
247.857
 11
966.804
 21
247.857
  0
LINE
  8
1
  6
CONTINUOUS
  62
3
 10
931.53
 20
226.047
 11
928.804
 21
247.857
  0
LINE
  8
1
  6
CONTINUOUS
  62
3
 10
966.804
 20
247.857
 11
966.804
 21
248.857
  0
LINE
  8
1
  6
CONTINUOUS
  62
3
 10
921.804
 20
225.857
 11
896.804
 21
225.857
  0
LINE
  8
1
  6
CONTINUOUS
  62
3
 10
921.804
 20
226.857
 11
896.804
 21
226.857
  0
LINE
  8
1
  6
CONTINUOUS
  62
3
 10
921.804
 20
227.857
 11
896.804
 21
227.857
  0
LINE
  8
1
  6
CONTINUOUS
  62
3
 10
896.804
 20
227.857
 11
896.804
 21
225.857
  0
LINE
  8
1
  6
CONTINUOUS
  62
3
 10
920.804
 20
248.857
 11
920.804
 21
227.857
  0
LINE
  8
1
  6
CONTINUOUS
  62
3
 10
966.804
 20
247.857
 11
921.804
 21
247.857
  0
LINE
  8
1
  6
CONTINUOUS
  62
3
 10
921.804
 20
247.857
 11
921.804
 21
225.857
  0
LINE
  8
1
  6
CONTINUOUS
  62
3
 10
357.804
 20
247.857
 11
357.804
 21
225.857
  0
LINE
  8
1
  6
CONTINUOUS
  62
3
 10
312.804
 20
247.857
 11
357.804
 21
247.857
  0
LINE
  8
1
  6
CONTINUOUS
  62
3
 10
358.804
 20
248.857
 11
358.804
 21
227.857
  0
LINE
  8
1
  6
CONTINUOUS
  62
3
 10
382.804
 20
227.857
 11
382.804
 21
225.857
  0
LINE
  8
1
  6
CONTINUOUS
  62
3
 10
357.804
 20
227.857
 11
382.804
 21
227.857
  0
LINE
  8
1
  6
CONTINUOUS
  62
3
 10
357.804
 20
226.857
 11
382.804
 21
226.857
  0
LINE
  8
1
  6
CONTINUOUS
  62
3
 10
357.804
 20
225.857
 11
382.804
 21
225.857
  0
LINE
  8
1
  6
CONTINUOUS
  62
3
 10
312.804
 20
247.857
 11
312.804
 21
248.857
  0
LINE
  8
1
  6
CONTINUOUS
  62
3
 10
348.078
 20
226.047
 11
350.804
 21
247.857
  0
LINE
  8
1
  6
CONTINUOUS
  62
3
 10
350.804
 20
247.857
 11
312.804
 21
247.857
  0
LINE
  8
1
  6
CONTINUOUS
  62
3
 10
318.011
 20
223.857
 11
345.597
 21
223.857
  0
LINE
  8
1
  6
CONTINUOUS
  62
3
 10
315.53
 20
226.047
 11
312.804
 21
247.857
  0
LINE
  8
1
  6
DASHDOT
  62
4
 10
561.304
 20
720.357
 11
561.304
 21
1241.36
  0
LINE
  8
1
  6
DASHDOT
  62
4
 10
928.483
 20
321.857
 11
353.804
 21
321.857
  0
LINE
  8
1
  6
CONTINUOUS
  62
3
 10
403.676
 20
346.181
 11
404.841
 21
339.575
  0
LINE
  8
1
  6
CONTINUOUS
  62
3
 10
398.804
 20
338.616
 11
398.804
 21
335.857
  0
LINE
  8
1
  6
CONTINUOUS
  62
3
 10
398.804
 20
338.616
 11
403.804
 21
338.616
  0
LINE
  8
1
  6
CONTINUOUS
  62
3
 10
403.804
 20
335.857
 11
403.804
 21
338.616
  0
LINE
  8
1
  6
CONTINUOUS
  62
3
 10
405.804
 20
334.857
 11
403.804
 21
335.857
  0
LINE
  8
1
  6
CONTINUOUS
  62
3
 10
396.804
 20
334.857
 11
398.804
 21
335.857
  0
LINE
  8
1
  6
CONTINUOUS
  62
3
 10
405.804
 20
334.857
 11
396.804
 21
334.857
  0
LINE
  8
1
  6
CONTINUOUS
  62
3
 10
396.804
 20
334.857
 11
396.804
 21
332.707
  0
LINE
  8
1
  6
CONTINUOUS
  62
3
 10
403.804
 20
335.857
 11
398.804
 21
335.857
  0
LINE
  8
1
  6
CONTINUOUS
  62
3
 10
405.804
 20
332.707
 11
405.804
 21
334.857
  0
LINE
  8
1
  6
CONTINUOUS
  62
3
 10
398.132
 20
309.357
 11
404.476
 21
309.357
  0
LINE
  8
1
  6
CONTINUOUS
  62
3
 10
414.483
 20
348.235
 11
415.699
 21
341.342
  0
LINE
  8
1
  6
CONTINUOUS
  62
3
 10
427.286
 20
350.493
 11
428.502
 21
343.599
  0
LINE
  8
1
  6
CONTINUOUS
  62
3
 10
414.483
 20
348.235
 11
427.286
 21
350.493
  0
LINE
  8
1
  6
CONTINUOUS
  62
3
 10
428.502
 20
343.599
 11
415.699
 21
341.342
  0
LINE
  8
1
  6
CONTINUOUS
  62
3
 10
393.65
 20
303.38
 11
396.52
 21
310.309
  0
LINE
  8
1
  6
CONTINUOUS
  62
3
 10
406.087
 20
333.406
 11
408.958
 21
340.335
  0
LINE
  8
1
  6
CONTINUOUS
  62
3
 10
396.52
 20
333.406
 11
393.65
 21
340.335
  0
LINE
  8
1
  6
CONTINUOUS
  62
3
 10
356.804
 20
308.357
 11
356.804
 21
335.357
  0
LINE
  8
1
  6
CONTINUOUS
  62
3
 10
341.416
 20
335.357
 11
356.804
 21
335.357
  0
LINE
  8
1
  6
CONTINUOUS
  62
3
 10
341.416
 20
308.357
 11
356.804
 21
308.357
  0
LINE
  8
1
  6
CONTINUOUS
  62
3
 10
341.416
 20
323.857
 11
356.804
 21
323.857
  0
LINE
  8
1
  6
CONTINUOUS
  62
3
 10
341.416
 20
319.857
 11
356.804
 21
319.857
  0
LINE
  8
1
  6
CONTINUOUS
  62
3
 10
363.804
 20
311.007
 11
356.804
 21
311.357
  0
LINE
  8
1
  6
CONTINUOUS
  62
3
 10
363.804
 20
332.707
 11
356.804
 21
332.357
  0
LINE
  8
1
  6
CONTINUOUS
  62
3
 10
748.502
 20
343.599
 11
735.699
 21
341.342
  0
LINE
  8
1
  6
CONTINUOUS
  62
3
 10
734.483
 20
348.235
 11
747.286
 21
350.493
  0
LINE
  8
1
  6
CONTINUOUS
  62
3
 10
716.52
 20
333.406
 11
713.65
 21
340.335
  0
LINE
  8
1
  6
CONTINUOUS
  62
3
 10
726.087
 20
333.406
 11
728.958
 21
340.335
  0
LINE
  8
1
  6
CONTINUOUS
  62
3
 10
713.65
 20
303.38
 11
716.52
 21
310.309
  0
LINE
  8
1
  6
CONTINUOUS
  62
3
 10
734.483
 20
348.235
 11
735.699
 21
341.342
  0
LINE
  8
1
  6
CONTINUOUS
  62
3
 10
718.132
 20
309.357
 11
724.476
 21
309.357
  0
LINE
  8
1
  6
CONTINUOUS
  62
3
 10
725.804
 20
332.707
 11
725.804
 21
334.857
  0
LINE
  8
1
  6
CONTINUOUS
  62
3
 10
723.804
 20
335.857
 11
718.804
 21
335.857
  0
LINE
  8
1
  6
CONTINUOUS
  62
3
 10
716.804
 20
334.857
 11
716.804
 21
332.707
  0
LINE
  8
1
  6
CONTINUOUS
  62
3
 10
725.804
 20
334.857
 11
716.804
 21
334.857
  0
LINE
  8
1
  6
CONTINUOUS
  62
3
 10
716.804
 20
334.857
 11
718.804
 21
335.857
  0
LINE
  8
1
  6
CONTINUOUS
  62
3
 10
725.804
 20
334.857
 11
723.804
 21
335.857
  0
LINE
  8
1
  6
CONTINUOUS
  62
3
 10
723.804
 20
335.857
 11
723.804
 21
338.616
  0
LINE
  8
1
  6
CONTINUOUS
  62
3
 10
718.804
 20
338.616
 11
723.804
 21
338.616
  0
LINE
  8
1
  6
CONTINUOUS
  62
3
 10
718.804
 20
338.616
 11
718.804
 21
335.857
  0
LINE
  8
1
  6
CONTINUOUS
  62
3
 10
723.676
 20
346.181
 11
724.841
 21
339.575
  0
LINE
  8
1
  6
CONTINUOUS
  62
3
 10
747.285
 20
350.493
 11
748.501
 21
343.6
  0
LINE
  8
1
  6
CONTINUOUS
  62
3
 10
925.804
 20
311.007
 11
363.804
 21
311.007
  0
LINE
  8
1
  6
CONTINUOUS
  62
3
 10
363.804
 20
332.707
 11
925.804
 21
332.707
  0
LINE
  8
1
  6
CONTINUOUS
  62
3
 10
925.804
 20
308.357
 11
925.804
 21
335.357
  0
LINE
  8
1
  6
CONTINUOUS
  62
3
 10
925.804
 20
308.357
 11
936.304
 21
308.357
  0
LINE
  8
1
  6
CONTINUOUS
  62
3
 10
925.804
 20
335.357
 11
936.304
 21
335.357
  0
LINE
  8
1
  6
CONTINUOUS
  62
3
 10
927.304
 20
327.86
 11
936.718
 21
327.86
  0
LINE
  8
1
  6
CONTINUOUS
  62
3
 10
927.304
 20
326.868
 11
936.718
 21
326.868
  0
LINE
  8
1
  6
CONTINUOUS
  62
3
 10
927.304
 20
335.357
 11
927.304
 21
334.947
  0
LINE
  8
1
  6
CONTINUOUS
  62
3
 10
927.304
 20
334.947
 11
936.718
 21
334.947
  0
LINE
  8
1
  6
CONTINUOUS
  62
3
 10
927.304
 20
327.86
 11
927.304
 21
326.868
  0
LINE
  8
1
  6
CONTINUOUS
  62
3
 10
927.304
 20
316.846
 11
936.718
 21
316.846
  0
LINE
  8
1
  6
CONTINUOUS
  62
3
 10
927.304
 20
315.855
 11
927.304
 21
316.846
  0
LINE
  8
1
  6
CONTINUOUS
  62
3
 10
927.304
 20
315.855
 11
936.718
 21
315.855
  0
LINE
  8
1
  6
CONTINUOUS
  62
3
 10
927.304
 20
308.768
 11
936.718
 21
308.768
  0
LINE
  8
1
  6
CONTINUOUS
  62
3
 10
927.304
 20
308.357
 11
927.304
 21
308.768
  0
LINE
  8
1
  6
CONTINUOUS
  62
3
 10
898.804
 20
332.707
 11
905.804
 21
332.357
  0
LINE
  8
1
  6
CONTINUOUS
  62
3
 10
898.804
 20
311.007
 11
905.804
 21
311.357
  0
LINE
  8
1
  6
CONTINUOUS
  62
3
 10
883.676
 20
346.181
 11
884.841
 21
339.575
  0
LINE
  8
1
  6
CONTINUOUS
  62
3
 10
883.804
 20
338.616
 11
883.804
 21
335.857
  0
LINE
  8
1
  6
CONTINUOUS
  62
3
 10
878.804
 20
338.616
 11
883.804
 21
338.616
  0
LINE
  8
1
  6
CONTINUOUS
  62
3
 10
878.804
 20
335.857
 11
878.804
 21
338.616
  0
LINE
  8
1
  6
CONTINUOUS
  62
3
 10
876.804
 20
334.857
 11
878.804
 21
335.857
  0
LINE
  8
1
  6
CONTINUOUS
  62
3
 10
885.804
 20
334.857
 11
883.804
 21
335.857
  0
LINE
  8
1
  6
CONTINUOUS
  62
3
 10
876.804
 20
334.857
 11
885.804
 21
334.857
  0
LINE
  8
1
  6
CONTINUOUS
  62
3
 10
885.804
 20
334.857
 11
885.804
 21
332.707
  0
LINE
  8
1
  6
CONTINUOUS
  62
3
 10
878.804
 20
335.857
 11
883.804
 21
335.857
  0
LINE
  8
1
  6
CONTINUOUS
  62
3
 10
876.804
 20
332.707
 11
876.804
 21
334.857
  0
LINE
  8
1
  6
CONTINUOUS
  62
3
 10
878.132
 20
309.357
 11
884.476
 21
309.357
  0
LINE
  8
1
  6
CONTINUOUS
  62
3
 10
894.483
 20
348.235
 11
895.699
 21
341.342
  0
LINE
  8
1
  6
CONTINUOUS
  62
3
 10
873.65
 20
303.38
 11
876.52
 21
310.309
  0
LINE
  8
1
  6
CONTINUOUS
  62
3
 10
886.087
 20
333.406
 11
888.958
 21
340.335
  0
LINE
  8
1
  6
CONTINUOUS
  62
3
 10
876.52
 20
333.406
 11
873.65
 21
340.335
  0
LINE
  8
1
  6
CONTINUOUS
  62
3
 10
907.286
 20
350.493
 11
908.502
 21
343.599
  0
LINE
  8
1
  6
CONTINUOUS
  62
3
 10
894.483
 20
348.235
 11
907.286
 21
350.493
  0
LINE
  8
1
  6
CONTINUOUS
  62
3
 10
908.502
 20
343.599
 11
895.699
 21
341.342
  0
LINE
  8
1
  6
CONTINUOUS
  62
3
 10
563.676
 20
346.181
 11
564.841
 21
339.575
  0
LINE
  8
1
  6
CONTINUOUS
  62
3
 10
558.804
 20
338.616
 11
558.804
 21
335.857
  0
LINE
  8
1
  6
CONTINUOUS
  62
3
 10
558.804
 20
338.616
 11
563.804
 21
338.616
  0
LINE
  8
1
  6
CONTINUOUS
  62
3
 10
563.804
 20
335.857
 11
563.804
 21
338.616
  0
LINE
  8
1
  6
CONTINUOUS
  62
3
 10
565.804
 20
334.857
 11
563.804
 21
335.857
  0
LINE
  8
1
  6
CONTINUOUS
  62
3
 10
556.804
 20
334.857
 11
558.804
 21
335.857
  0
LINE
  8
1
  6
CONTINUOUS
  62
3
 10
565.804
 20
334.857
 11
556.804
 21
334.857
  0
LINE
  8
1
  6
CONTINUOUS
  62
3
 10
556.804
 20
334.857
 11
556.804
 21
332.707
  0
LINE
  8
1
  6
CONTINUOUS
  62
3
 10
563.804
 20
335.857
 11
558.804
 21
335.857
  0
LINE
  8
1
  6
CONTINUOUS
  62
3
 10
565.804
 20
332.707
 11
565.804
 21
334.857
  0
LINE
  8
1
  6
CONTINUOUS
  62
3
 10
558.132
 20
309.357
 11
564.476
 21
309.357
  0
LINE
  8
1
  6
CONTINUOUS
  62
3
 10
574.483
 20
348.235
 11
575.699
 21
341.342
  0
LINE
  8
1
  6
CONTINUOUS
  62
3
 10
553.65
 20
303.38
 11
556.52
 21
310.309
  0
LINE
  8
1
  6
CONTINUOUS
  62
3
 10
566.087
 20
333.406
 11
568.958
 21
340.335
  0
LINE
  8
1
  6
CONTINUOUS
  62
3
 10
556.52
 20
333.406
 11
553.65
 21
340.335
  0
LINE
  8
1
  6
CONTINUOUS
  62
3
 10
587.286
 20
350.493
 11
588.502
 21
343.599
  0
LINE
  8
1
  6
CONTINUOUS
  62
3
 10
574.483
 20
348.235
 11
587.286
 21
350.493
  0
LINE
  8
1
  6
CONTINUOUS
  62
3
 10
588.502
 20
343.599
 11
575.699
 21
341.342
  0
LINE
  8
1
  6
CONTINUOUS
  62
3
 10
939.804
 20
308.768
 11
930.537
 21
308.768
  0
LINE
  8
1
  6
CONTINUOUS
  62
3
 10
939.804
 20
308.357
 11
939.804
 21
308.768
  0
LINE
  8
1
  6
CONTINUOUS
  62
3
 10
939.804
 20
315.855
 11
939.804
 21
316.846
  0
LINE
  8
1
  6
CONTINUOUS
  62
3
 10
939.804
 20
315.855
 11
930.537
 21
315.855
  0
LINE
  8
1
  6
CONTINUOUS
  62
3
 10
939.804
 20
316.846
 11
930.537
 21
316.846
  0
LINE
  8
1
  6
CONTINUOUS
  62
3
 10
939.804
 20
327.86
 11
939.804
 21
326.868
  0
LINE
  8
1
  6
CONTINUOUS
  62
3
 10
939.804
 20
334.947
 11
930.537
 21
334.947
  0
LINE
  8
1
  6
CONTINUOUS
  62
3
 10
939.804
 20
335.357
 11
939.804
 21
334.947
  0
LINE
  8
1
  6
CONTINUOUS
  62
3
 10
939.804
 20
326.868
 11
930.537
 21
326.868
  0
LINE
  8
1
  6
CONTINUOUS
  62
3
 10
939.804
 20
327.86
 11
930.537
 21
327.86
  0
LINE
  8
1
  6
CONTINUOUS
  62
3
 10
940.804
 20
335.357
 11
930.677
 21
335.357
  0
LINE
  8
1
  6
CONTINUOUS
  62
3
 10
940.804
 20
308.357
 11
930.677
 21
308.357
  0
LINE
  8
1
  6
CONTINUOUS
  62
3
 10
940.804
 20
335.357
 11
940.804
 21
308.357
  0
LINE
  8
1
  6
CONTINUOUS
  62
3
 10
949.304
 20
315.357
 11
949.304
 21
306.357
  0
LINE
  8
1
  6
CONTINUOUS
  62
3
 10
959.304
 20
317.704
 11
959.304
 21
306.357
  0
LINE
  8
1
  6
CONTINUOUS
  62
3
 10
959.304
 20
307.357
 11
949.304
 21
307.357
  0
LINE
  8
1
  6
CONTINUOUS
  62
3
 10
959.304
 20
306.357
 11
949.304
 21
306.357
  0
LINE
  8
1
  6
CONTINUOUS
  62
3
 10
958.804
 20
300.357
 11
949.804
 21
300.357
  0
LINE
  8
1
  6
CONTINUOUS
  62
3
 10
959.804
 20
294.357
 11
948.804
 21
294.357
  0
LINE
  8
1
  6
CONTINUOUS
  62
3
 10
948.804
 20
294.357
 11
950.304
 21
289.357
  0
LINE
  8
1
  6
CONTINUOUS
  62
3
 10
950.304
 20
289.357
 11
958.304
 21
289.357
  0
LINE
  8
1
  6
CONTINUOUS
  62
3
 10
958.304
 20
289.357
 11
959.804
 21
294.357
  0
LINE
  8
1
  6
CONTINUOUS
  62
3
 10
942.804
 20
328.357
 11
942.804
 21
315.357
  0
LINE
  8
1
  6
CONTINUOUS
  62
3
 10
942.804
 20
315.357
 11
954.304
 21
315.357
  0
LINE
  8
1
  6
CONTINUOUS
  62
3
 10
954.304
 20
328.357
 11
942.804
 21
328.357
  0
LINE
  8
1
  6
CONTINUOUS
  62
3
 10
942.804
 20
326.857
 11
940.804
 21
326.857
  0
LINE
  8
1
  6
CONTINUOUS
  62
3
 10
940.804
 20
316.857
 11
942.804
 21
316.857
  0
LINE
  8
1
  6
CONTINUOUS
  62
3
 10
940.804
 20
328.353
 11
940.804
 21
315.362
  0
LINE
  8
1
  6
CONTINUOUS
  62
3
 10
940.804
 20
329.857
 11
940.804
 21
313.857
  0
LINE
  8
1
  6
CONTINUOUS
  62
3
 10
804.054
 20
401.857
 11
958.554
 21
401.857
  0
LINE
  8
1
  6
CONTINUOUS
  62
3
 10
644.054
 20
401.857
 11
798.554
 21
401.857
  0
LINE
  8
1
  6
CONTINUOUS
  62
3
 10
798.554
 20
421.857
 11
798.554
 21
401.857
  0
LINE
  8
1
  6
CONTINUOUS
  62
3
 10
644.054
 20
421.857
 11
644.054
 21
401.857
  0
LINE
  8
1
  6
CONTINUOUS
  62
3
 10
644.054
 20
421.857
 11
798.554
 21
421.857
  0
LINE
  8
1
  6
CONTINUOUS
  62
3
 10
804.054
 20
421.857
 11
958.554
 21
421.857
  0
LINE
  8
1
  6
CONTINUOUS
  62
3
 10
804.054
 20
421.857
 11
804.054
 21
401.857
  0
LINE
  8
1
  6
CONTINUOUS
  62
3
 10
958.554
 20
421.857
 11
958.554
 21
401.857
  0
LINE
  8
1
  6
CONTINUOUS
  62
3
 10
638.554
 20
421.857
 11
638.554
 21
401.857
  0
LINE
  8
1
  6
CONTINUOUS
  62
3
 10
484.054
 20
421.857
 11
484.054
 21
401.857
  0
LINE
  8
1
  6
CONTINUOUS
  62
3
 10
484.054
 20
421.857
 11
638.554
 21
421.857
  0
LINE
  8
1
  6
CONTINUOUS
  62
3
 10
324.054
 20
421.857
 11
478.554
 21
421.857
  0
LINE
  8
1
  6
CONTINUOUS
  62
3
 10
324.054
 20
421.857
 11
324.054
 21
401.857
  0
LINE
  8
1
  6
CONTINUOUS
  62
3
 10
478.554
 20
421.857
 11
478.554
 21
401.857
  0
LINE
  8
1
  6
CONTINUOUS
  62
3
 10
324.054
 20
401.857
 11
478.554
 21
401.857
  0
LINE
  8
1
  6
CONTINUOUS
  62
3
 10
484.054
 20
401.857
 11
638.554
 21
401.857
  0
LINE
  8
1
  6
CONTINUOUS
  62
7
 10
928.804
 20
614.707
 11
928.804
 21
587.707
  0
LINE
  8
1
  6
CONTINUOUS
  62
7
 10
928.804
 20
587.707
 11
918.677
 21
587.707
  0
LINE
  8
1
  6
CONTINUOUS
  62
7
 10
928.804
 20
614.707
 11
918.677
 21
614.707
  0
LINE
  8
1
  6
CONTINUOUS
  62
7
 10
927.804
 20
607.21
 11
918.537
 21
607.21
  0
LINE
  8
1
  6
CONTINUOUS
  62
7
 10
927.804
 20
606.218
 11
918.537
 21
606.218
  0
LINE
  8
1
  6
CONTINUOUS
  62
7
 10
927.804
 20
614.707
 11
927.804
 21
614.297
  0
LINE
  8
1
  6
CONTINUOUS
  62
7
 10
927.804
 20
614.297
 11
918.537
 21
614.297
  0
LINE
  8
1
  6
CONTINUOUS
  62
7
 10
927.804
 20
607.21
 11
927.804
 21
606.218
  0
LINE
  8
1
  6
CONTINUOUS
  62
7
 10
927.804
 20
596.196
 11
918.537
 21
596.196
  0
LINE
  8
1
  6
CONTINUOUS
  62
7
 10
927.804
 20
595.205
 11
918.537
 21
595.205
  0
LINE
  8
1
  6
CONTINUOUS
  62
7
 10
927.804
 20
595.205
 11
927.804
 21
596.196
  0
LINE
  8
1
  6
CONTINUOUS
  62
7
 10
927.804
 20
587.707
 11
927.804
 21
588.118
  0
LINE
  8
1
  6
CONTINUOUS
  62
7
 10
927.804
 20
588.118
 11
918.537
 21
588.118
  0
LINE
  8
1
  6
CONTINUOUS
  62
7
 10
928.804
 20
607.703
 11
928.804
 21
594.712
  0
LINE
  8
1
  6
CONTINUOUS
  62
7
 10
928.804
 20
609.207
 11
928.804
 21
593.207
  0
LINE
  8
1
  6
CONTINUOUS
  62
7
 10
918.804
 20
590.357
 11
913.804
 21
590.707
  0
LINE
  8
1
  6
CONTINUOUS
  62
7
 10
915.304
 20
587.707
 11
915.304
 21
588.118
  0
LINE
  8
1
  6
CONTINUOUS
  62
7
 10
915.304
 20
588.118
 11
924.718
 21
588.118
  0
LINE
  8
1
  6
CONTINUOUS
  62
7
 10
915.304
 20
595.205
 11
924.718
 21
595.205
  0
LINE
  8
1
  6
CONTINUOUS
  62
7
 10
915.304
 20
595.205
 11
915.304
 21
596.196
  0
LINE
  8
1
  6
CONTINUOUS
  62
7
 10
915.304
 20
596.196
 11
924.718
 21
596.196
  0
LINE
  8
1
  6
CONTINUOUS
  62
7
 10
915.304
 20
607.21
 11
915.304
 21
606.218
  0
LINE
  8
1
  6
CONTINUOUS
  62
7
 10
915.304
 20
614.297
 11
924.718
 21
614.297
  0
LINE
  8
1
  6
CONTINUOUS
  62
7
 10
915.304
 20
614.707
 11
915.304
 21
614.297
  0
LINE
  8
1
  6
CONTINUOUS
  62
7
 10
915.304
 20
606.218
 11
924.718
 21
606.218
  0
LINE
  8
1
  6
CONTINUOUS
  62
7
 10
915.304
 20
607.21
 11
924.718
 21
607.21
  0
LINE
  8
1
  6
CONTINUOUS
  62
7
 10
913.804
 20
614.707
 11
924.304
 21
614.707
  0
LINE
  8
1
  6
CONTINUOUS
  62
7
 10
913.804
 20
587.707
 11
924.304
 21
587.707
  0
LINE
  8
1
  6
CONTINUOUS
  62
7
 10
913.804
 20
587.707
 11
913.804
 21
614.707
  0
LINE
  8
1
  6
CONTINUOUS
  62
3
 10
966.804
 20
690.357
 11
966.804
 21
680.357
  0
LINE
  8
1
  6
CONTINUOUS
  62
3
 10
312.804
 20
690.357
 11
312.804
 21
680.357
  0
LINE
  8
1
  6
CONTINUOUS
  62
3
 10
312.804
 20
680.357
 11
966.804
 21
680.357
  0
LINE
  8
1
  6
CONTINUOUS
  62
3
 10
864.304
 20
679.707
 11
898.304
 21
679.707
  0
LINE
  8
1
  6
CONTINUOUS
  62
3
 10
704.304
 20
679.707
 11
738.304
 21
679.707
  0
LINE
  8
1
  6
CONTINUOUS
  62
3
 10
544.304
 20
679.707
 11
578.304
 21
679.707
  0
LINE
  8
1
  6
CONTINUOUS
  62
3
 10
384.304
 20
679.707
 11
418.304
 21
679.707
  0
LINE
  8
1
  6
CONTINUOUS
  62
2
 10
312.804
 20
301.857
 11
966.804
 21
301.857
  0
LINE
  8
1
  6
CONTINUOUS
  62
2
 10
312.804
 20
391.857
 11
966.804
 21
391.857
  0
LINE
  8
1
  6
CONTINUOUS
  62
2
 10
966.804
 20
248.857
 11
966.804
 21
401.857
  0
LINE
  8
1
  6
CONTINUOUS
  62
2
 10
312.804
 20
248.857
 11
312.804
 21
401.857
  0
LINE
  8
1
  6
CONTINUOUS
  62
2
 10
312.804
 20
248.857
 11
966.804
 21
248.857
  0
LINE
  8
1
  6
CONTINUOUS
  62
2
 10
312.804
 20
401.857
 11
966.804
 21
401.857
  0
LINE
  8
1
  6
CONTINUOUS
  62
7
 10
479.304
 20
286.857
 11
479.304
 21
260.857
  0
LINE
  8
1
  6
CONTINUOUS
  62
7
 10
483.304
 20
286.857
 11
483.304
 21
260.857
  0
LINE
  8
1
  6
CONTINUOUS
  62
7
 10
468.304
 20
286.857
 11
468.304
 21
260.857
  0
LINE
  8
1
  6
CONTINUOUS
  62
7
 10
453.304
 20
286.857
 11
453.304
 21
260.857
  0
LINE
  8
1
  6
CONTINUOUS
  62
7
 10
438.304
 20
286.857
 11
438.304
 21
260.857
  0
LINE
  8
1
  6
CONTINUOUS
  62
7
 10
423.304
 20
286.857
 11
423.304
 21
260.857
  0
LINE
  8
1
  6
CONTINUOUS
  62
7
 10
408.304
 20
286.857
 11
408.304
 21
260.857
  0
LINE
  8
1
  6
CONTINUOUS
  62
7
 10
393.304
 20
286.857
 11
393.304
 21
260.857
  0
LINE
  8
1
  6
CONTINUOUS
  62
7
 10
378.304
 20
286.857
 11
378.304
 21
260.857
  0
LINE
  8
1
  6
CONTINUOUS
  62
7
 10
464.304
 20
286.857
 11
464.304
 21
260.857
  0
LINE
  8
1
  6
CONTINUOUS
  62
7
 10
449.304
 20
286.857
 11
449.304
 21
260.857
  0
LINE
  8
1
  6
CONTINUOUS
  62
7
 10
434.304
 20
286.857
 11
434.304
 21
260.857
  0
LINE
  8
1
  6
CONTINUOUS
  62
7
 10
419.304
 20
286.857
 11
419.304
 21
260.857
  0
LINE
  8
1
  6
CONTINUOUS
  62
7
 10
404.304
 20
286.857
 11
404.304
 21
260.857
  0
LINE
  8
1
  6
CONTINUOUS
  62
7
 10
389.304
 20
286.857
 11
389.304
 21
260.857
  0
LINE
  8
1
  6
CONTINUOUS
  62
7
 10
374.304
 20
286.857
 11
374.304
 21
260.857
  0
LINE
  8
1
  6
CONTINUOUS
  62
7
 10
588.304
 20
286.857
 11
588.304
 21
260.857
  0
LINE
  8
1
  6
CONTINUOUS
  62
7
 10
573.304
 20
286.857
 11
573.304
 21
260.857
  0
LINE
  8
1
  6
CONTINUOUS
  62
7
 10
558.304
 20
286.857
 11
558.304
 21
260.857
  0
LINE
  8
1
  6
CONTINUOUS
  62
7
 10
543.304
 20
286.857
 11
543.304
 21
260.857
  0
LINE
  8
1
  6
CONTINUOUS
  62
7
 10
528.304
 20
286.857
 11
528.304
 21
260.857
  0
LINE
  8
1
  6
CONTINUOUS
  62
7
 10
513.304
 20
286.857
 11
513.304
 21
260.857
  0
LINE
  8
1
  6
CONTINUOUS
  62
7
 10
498.304
 20
286.857
 11
498.304
 21
260.857
  0
LINE
  8
1
  6
CONTINUOUS
  62
7
 10
584.304
 20
286.857
 11
584.304
 21
260.857
  0
LINE
  8
1
  6
CONTINUOUS
  62
7
 10
569.304
 20
286.857
 11
569.304
 21
260.857
  0
LINE
  8
1
  6
CONTINUOUS
  62
7
 10
554.304
 20
286.857
 11
554.304
 21
260.857
  0
LINE
  8
1
  6
CONTINUOUS
  62
7
 10
539.304
 20
286.857
 11
539.304
 21
260.857
  0
LINE
  8
1
  6
CONTINUOUS
  62
7
 10
524.304
 20
286.857
 11
524.304
 21
260.857
  0
LINE
  8
1
  6
CONTINUOUS
  62
7
 10
509.304
 20
286.857
 11
509.304
 21
260.857
  0
LINE
  8
1
  6
CONTINUOUS
  62
7
 10
494.304
 20
286.857
 11
494.304
 21
260.857
  0
LINE
  8
1
  6
CONTINUOUS
  62
7
 10
785.304
 20
286.857
 11
785.304
 21
260.857
  0
LINE
  8
1
  6
CONTINUOUS
  62
7
 10
770.304
 20
286.857
 11
770.304
 21
260.857
  0
LINE
  8
1
  6
CONTINUOUS
  62
7
 10
755.304
 20
286.857
 11
755.304
 21
260.857
  0
LINE
  8
1
  6
CONTINUOUS
  62
7
 10
740.304
 20
286.857
 11
740.304
 21
260.857
  0
LINE
  8
1
  6
CONTINUOUS
  62
7
 10
725.304
 20
286.857
 11
725.304
 21
260.857
  0
LINE
  8
1
  6
CONTINUOUS
  62
7
 10
710.304
 20
286.857
 11
710.304
 21
260.857
  0
LINE
  8
1
  6
CONTINUOUS
  62
7
 10
695.304
 20
286.857
 11
695.304
 21
260.857
  0
LINE
  8
1
  6
CONTINUOUS
  62
7
 10
781.304
 20
286.857
 11
781.304
 21
260.857
  0
LINE
  8
1
  6
CONTINUOUS
  62
7
 10
766.304
 20
286.857
 11
766.304
 21
260.857
  0
LINE
  8
1
  6
CONTINUOUS
  62
7
 10
751.304
 20
286.857
 11
751.304
 21
260.857
  0
LINE
  8
1
  6
CONTINUOUS
  62
7
 10
736.304
 20
286.857
 11
736.304
 21
260.857
  0
LINE
  8
1
  6
CONTINUOUS
  62
7
 10
721.304
 20
286.857
 11
721.304
 21
260.857
  0
LINE
  8
1
  6
CONTINUOUS
  62
7
 10
706.304
 20
286.857
 11
706.304
 21
260.857
  0
LINE
  8
1
  6
CONTINUOUS
  62
7
 10
691.304
 20
286.857
 11
691.304
 21
260.857
  0
LINE
  8
1
  6
CONTINUOUS
  62
7
 10
905.304
 20
286.857
 11
905.304
 21
260.857
  0
LINE
  8
1
  6
CONTINUOUS
  62
7
 10
890.304
 20
286.857
 11
890.304
 21
260.857
  0
LINE
  8
1
  6
CONTINUOUS
  62
7
 10
875.304
 20
286.857
 11
875.304
 21
260.857
  0
LINE
  8
1
  6
CONTINUOUS
  62
7
 10
860.304
 20
286.857
 11
860.304
 21
260.857
  0
LINE
  8
1
  6
CONTINUOUS
  62
7
 10
845.304
 20
286.857
 11
845.304
 21
260.857
  0
LINE
  8
1
  6
CONTINUOUS
  62
7
 10
830.304
 20
286.857
 11
830.304
 21
260.857
  0
LINE
  8
1
  6
CONTINUOUS
  62
7
 10
815.304
 20
286.857
 11
815.304
 21
260.857
  0
LINE
  8
1
  6
CONTINUOUS
  62
7
 10
901.304
 20
286.857
 11
901.304
 21
260.857
  0
LINE
  8
1
  6
CONTINUOUS
  62
7
 10
886.304
 20
286.857
 11
886.304
 21
260.857
  0
LINE
  8
1
  6
CONTINUOUS
  62
7
 10
871.304
 20
286.857
 11
871.304
 21
260.857
  0
LINE
  8
1
  6
CONTINUOUS
  62
7
 10
856.304
 20
286.857
 11
856.304
 21
260.857
  0
LINE
  8
1
  6
CONTINUOUS
  62
7
 10
841.304
 20
286.857
 11
841.304
 21
260.857
  0
LINE
  8
1
  6
CONTINUOUS
  62
7
 10
826.304
 20
286.857
 11
826.304
 21
260.857
  0
LINE
  8
1
  6
CONTINUOUS
  62
7
 10
811.304
 20
286.857
 11
811.304
 21
260.857
  0
LINE
  8
1
  6
CONTINUOUS
  62
7
 10
796.304
 20
286.857
 11
796.304
 21
260.857
  0
LINE
  8
1
  6
CONTINUOUS
  62
7
 10
800.304
 20
286.857
 11
800.304
 21
260.857
  0
LINE
  8
1
  6
CONTINUOUS
  62
2
 10
312.804
 20
1243.36
 11
312.804
 21
690.357
  0
LINE
  8
1
  6
CONTINUOUS
  62
2
 10
966.804
 20
1243.36
 11
966.804
 21
690.357
  0
LINE
  8
1
  6
CONTINUOUS
  62
2
 10
966.804
 20
690.357
 11
312.804
 21
690.357
  0
LINE
  8
1
  6
CONTINUOUS
  62
2
 10
312.804
 20
1243.36
 11
966.804
 21
1243.36
  0
LINE
  8
1
  6
CONTINUOUS
  62
2
 10
332.804
 20
1223.36
 11
332.804
 21
710.357
  0
LINE
  8
1
  6
CONTINUOUS
  62
3
 10
441.304
 20
720.357
 11
441.304
 21
1241.36
  0
LINE
  8
1
  6
CONTINUOUS
  62
3
 10
361.304
 20
720.357
 11
361.304
 21
1241.36
  0
LINE
  8
1
  6
CONTINUOUS
  62
3
 10
361.304
 20
720.357
 11
441.304
 21
720.357
  0
LINE
  8
1
  6
DOT
  62
3
 10
361.304
 20
1241.36
 11
441.304
 21
1241.36
  0
LINE
  8
1
  6
DOT
  62
3
 10
521.304
 20
1241.36
 11
601.304
 21
1241.36
  0
LINE
  8
1
  6
CONTINUOUS
  62
3
 10
521.304
 20
720.357
 11
601.304
 21
720.357
  0
LINE
  8
1
  6
CONTINUOUS
  62
3
 10
521.304
 20
720.357
 11
521.304
 21
1241.36
  0
LINE
  8
1
  6
CONTINUOUS
  62
3
 10
601.304
 20
720.357
 11
601.304
 21
1241.36
  0
LINE
  8
1
  6
CONTINUOUS
  62
3
 10
629.804
 20
710.357
 11
629.804
 21
1223.36
  0
LINE
  8
1
  6
CONTINUOUS
  62
3
 10
643.804
 20
1242.1
 11
643.804
 21
692.1
  0
LINE
  8
1
  6
CONTINUOUS
  62
3
 10
958.804
 20
692.1
 11
958.804
 21
1242.1
  0
LINE
  8
1
  6
CONTINUOUS
  62
3
 10
798.304
 20
692.1
 11
798.304
 21
1242.1
  0
LINE
  8
1
  6
CONTINUOUS
  62
3
 10
804.304
 20
692.1
 11
804.304
 21
1242.1
  0
LINE
  8
1
  6
CONTINUOUS
  62
3
 10
798.304
 20
1242.1
 11
643.804
 21
1242.1
  0
LINE
  8
1
  6
CONTINUOUS
  62
3
 10
958.804
 20
1242.1
 11
804.304
 21
1242.1
  0
LINE
  8
1
  6
CONTINUOUS
  62
3
 10
798.304
 20
692.1
 11
643.804
 21
692.1
  0
LINE
  8
1
  6
CONTINUOUS
  62
3
 10
958.804
 20
692.1
 11
804.304
 21
692.1
  0
LINE
  8
1
  6
CONTINUOUS
  62
3
 10
876.304
 20
1252.1
 11
726.304
 21
1252.1
  0
LINE
  8
1
  6
CONTINUOUS
  62
3
 10
813.304
 20
1272.1
 11
789.304
 21
1272.1
  0
LINE
  8
1
  6
CONTINUOUS
  62
3
 10
789.304
 20
1272.1
 11
789.304
 21
1252.1
  0
LINE
  8
1
  6
CONTINUOUS
  62
3
 10
813.304
 20
1272.1
 11
813.304
 21
1252.1
  0
LINE
  8
1
  6
CONTINUOUS
  62
3
 10
781.304
 20
1242.1
 11
781.304
 21
1262.1
  0
LINE
  8
1
  6
CONTINUOUS
  62
3
 10
821.304
 20
1242.1
 11
821.304
 21
1262.1
  0
LINE
  8
1
  6
CONTINUOUS
  62
3
 10
821.304
 20
1262.1
 11
781.304
 21
1262.1
  0
LINE
  8
1
  6
CONTINUOUS
  62
3
 10
726.304
 20
1242.1
 11
726.304
 21
1252.1
  0
LINE
  8
1
  6
CONTINUOUS
  62
3
 10
876.304
 20
1242.1
 11
876.304
 21
1252.1
  0
LINE
  8
1
  6
CONTINUOUS
  62
3
 10
876.304
 20
692.1
 11
876.304
 21
682.1
  0
LINE
  8
1
  6
CONTINUOUS
  62
3
 10
726.304
 20
692.1
 11
726.304
 21
682.1
  0
LINE
  8
1
  6
CONTINUOUS
  62
3
 10
821.304
 20
672.1
 11
781.304
 21
672.1
  0
LINE
  8
1
  6
CONTINUOUS
  62
3
 10
821.304
 20
692.1
 11
821.304
 21
672.1
  0
LINE
  8
1
  6
CONTINUOUS
  62
3
 10
781.304
 20
692.1
 11
781.304
 21
672.1
  0
LINE
  8
1
  6
CONTINUOUS
  62
3
 10
813.304
 20
662.1
 11
813.304
 21
682.1
  0
LINE
  8
1
  6
CONTINUOUS
  62
3
 10
789.304
 20
662.1
 11
789.304
 21
682.1
  0
LINE
  8
1
  6
CONTINUOUS
  62
3
 10
813.304
 20
662.1
 11
789.304
 21
662.1
  0
LINE
  8
1
  6
CONTINUOUS
  62
3
 10
876.304
 20
682.1
 11
726.304
 21
682.1
  0
LINE
  8
1
  6
DOT
  62
4
 10
948.804
 20
1010.21
 11
945.512
 21
1021.8
  0
LINE
  8
1
  6
DOT
  62
4
 10
945.512
 20
1021.8
 11
935.96
 21
1032.25
  0
LINE
  8
1
  6
DOT
  62
4
 10
935.96
 20
1032.25
 11
921.082
 21
1040.55
  0
LINE
  8
1
  6
DOT
  62
4
 10
921.082
 20
1040.55
 11
902.335
 21
1045.87
  0
LINE
  8
1
  6
DOT
  62
4
 10
902.335
 20
1045.87
 11
881.553
 21
1047.71
  0
LINE
  8
1
  6
DOT
  62
4
 10
881.553
 20
1047.71
 11
860.772
 21
1045.87
  0
LINE
  8
1
  6
DOT
  62
4
 10
860.772
 20
1045.87
 11
842.025
 21
1040.55
  0
LINE
  8
1
  6
DOT
  62
4
 10
842.025
 20
1040.55
 11
827.147
 21
1032.25
  0
LINE
  8
1
  6
DOT
  62
4
 10
827.147
 20
1032.25
 11
817.595
 21
1021.8
  0
LINE
  8
1
  6
DOT
  62
4
 10
817.595
 20
1021.8
 11
814.304
 21
1010.21
  0
LINE
  8
1
  6
DOT
  62
4
 10
814.304
 20
1010.21
 11
817.595
 21
998.621
  0
LINE
  8
1
  6
DOT
  62
4
 10
817.595
 20
998.621
 11
827.147
 21
988.168
  0
LINE
  8
1
  6
DOT
  62
4
 10
827.147
 20
988.168
 11
842.025
 21
979.871
  0
LINE
  8
1
  6
DOT
  62
4
 10
842.025
 20
979.871
 11
860.772
 21
974.544
  0
LINE
  8
1
  6
DOT
  62
4
 10
860.772
 20
974.544
 11
881.553
 21
972.709
  0
LINE
  8
1
  6
DOT
  62
4
 10
881.553
 20
972.709
 11
902.335
 21
974.544
  0
LINE
  8
1
  6
DOT
  62
4
 10
902.335
 20
974.544
 11
921.082
 21
979.871
  0
LINE
  8
1
  6
DOT
  62
4
 10
921.082
 20
979.871
 11
935.96
 21
988.168
  0
LINE
  8
1
  6
DOT
  62
4
 10
935.96
 20
988.168
 11
945.512
 21
998.621
  0
LINE
  8
1
  6
DOT
  62
4
 10
945.512
 20
998.621
 11
948.804
 21
1010.21
  0
LINE
  8
1
  6
DOT
  62
4
 10
945.512
 20
1084.81
 11
948.804
 21
1096.4
  0
LINE
  8
1
  6
DOT
  62
4
 10
935.96
 20
1074.36
 11
945.512
 21
1084.81
  0
LINE
  8
1
  6
DOT
  62
4
 10
921.082
 20
1066.06
 11
935.96
 21
1074.36
  0
LINE
  8
1
  6
DOT
  62
4
 10
902.335
 20
1060.74
 11
921.082
 21
1066.06
  0
LINE
  8
1
  6
DOT
  62
4
 10
881.553
 20
1058.9
 11
902.335
 21
1060.74
  0
LINE
  8
1
  6
DOT
  62
4
 10
860.772
 20
1060.74
 11
881.553
 21
1058.9
  0
LINE
  8
1
  6
DOT
  62
4
 10
842.025
 20
1066.06
 11
860.772
 21
1060.74
  0
LINE
  8
1
  6
DOT
  62
4
 10
827.147
 20
1074.36
 11
842.025
 21
1066.06
  0
LINE
  8
1
  6
DOT
  62
4
 10
817.595
 20
1084.81
 11
827.147
 21
1074.36
  0
LINE
  8
1
  6
DOT
  62
4
 10
814.304
 20
1096.4
 11
817.595
 21
1084.81
  0
LINE
  8
1
  6
DOT
  62
4
 10
817.595
 20
1107.99
 11
814.304
 21
1096.4
  0
LINE
  8
1
  6
DOT
  62
4
 10
827.147
 20
1118.44
 11
817.595
 21
1107.99
  0
LINE
  8
1
  6
DOT
  62
4
 10
842.025
 20
1126.74
 11
827.147
 21
1118.44
  0
LINE
  8
1
  6
DOT
  62
4
 10
860.772
 20
1132.07
 11
842.025
 21
1126.74
  0
LINE
  8
1
  6
DOT
  62
4
 10
881.553
 20
1133.9
 11
860.772
 21
1132.07
  0
LINE
  8
1
  6
DOT
  62
4
 10
902.335
 20
1132.07
 11
881.553
 21
1133.9
  0
LINE
  8
1
  6
DOT
  62
4
 10
921.082
 20
1126.74
 11
902.335
 21
1132.07
  0
LINE
  8
1
  6
DOT
  62
4
 10
935.96
 20
1118.44
 11
921.082
 21
1126.74
  0
LINE
  8
1
  6
DOT
  62
4
 10
945.512
 20
1107.99
 11
935.96
 21
1118.44
  0
LINE
  8
1
  6
DOT
  62
4
 10
948.804
 20
1096.4
 11
945.512
 21
1107.99
  0
LINE
  8
1
  6
DOT
  62
4
 10
945.512
 20
1172.03
 11
948.804
 21
1183.62
  0
LINE
  8
1
  6
DOT
  62
4
 10
935.96
 20
1161.58
 11
945.512
 21
1172.03
  0
LINE
  8
1
  6
DOT
  62
4
 10
921.082
 20
1153.28
 11
935.96
 21
1161.58
  0
LINE
  8
1
  6
DOT
  62
4
 10
902.335
 20
1147.95
 11
921.082
 21
1153.28
  0
LINE
  8
1
  6
DOT
  62
4
 10
881.553
 20
1146.12
 11
902.335
 21
1147.95
  0
LINE
  8
1
  6
DOT
  62
4
 10
860.772
 20
1147.95
 11
881.553
 21
1146.12
  0
LINE
  8
1
  6
DOT
  62
4
 10
842.025
 20
1153.28
 11
860.772
 21
1147.95
  0
LINE
  8
1
  6
DOT
  62
4
 10
827.147
 20
1161.58
 11
842.025
 21
1153.28
  0
LINE
  8
1
  6
DOT
  62
4
 10
817.595
 20
1172.03
 11
827.147
 21
1161.58
  0
LINE
  8
1
  6
DOT
  62
4
 10
814.304
 20
1183.62
 11
817.595
 21
1172.03
  0
LINE
  8
1
  6
DOT
  62
4
 10
817.595
 20
1195.21
 11
814.304
 21
1183.62
  0
LINE
  8
1
  6
DOT
  62
4
 10
827.147
 20
1205.66
 11
817.595
 21
1195.21
  0
LINE
  8
1
  6
DOT
  62
4
 10
842.025
 20
1213.96
 11
827.147
 21
1205.66
  0
LINE
  8
1
  6
DOT
  62
4
 10
860.772
 20
1219.28
 11
842.025
 21
1213.96
  0
LINE
  8
1
  6
DOT
  62
4
 10
881.553
 20
1221.12
 11
860.772
 21
1219.28
  0
LINE
  8
1
  6
DOT
  62
4
 10
902.335
 20
1219.28
 11
881.553
 21
1221.12
  0
LINE
  8
1
  6
DOT
  62
4
 10
921.082
 20
1213.96
 11
902.335
 21
1219.28
  0
LINE
  8
1
  6
DOT
  62
4
 10
935.96
 20
1205.66
 11
921.082
 21
1213.96
  0
LINE
  8
1
  6
DOT
  62
4
 10
945.512
 20
1195.21
 11
935.96
 21
1205.66
  0
LINE
  8
1
  6
DOT
  62
4
 10
948.804
 20
1183.62
 11
945.512
 21
1195.21
  0
LINE
  8
1
  6
DOT
  62
4
 10
948.804
 20
750.58
 11
945.512
 21
738.992
  0
LINE
  8
1
  6
DOT
  62
4
 10
945.512
 20
738.992
 11
935.96
 21
728.539
  0
LINE
  8
1
  6
DOT
  62
4
 10
935.96
 20
728.539
 11
921.082
 21
720.243
  0
LINE
  8
1
  6
DOT
  62
4
 10
921.082
 20
720.243
 11
902.335
 21
714.916
  0
LINE
  8
1
  6
DOT
  62
4
 10
902.335
 20
714.916
 11
881.553
 21
713.08
  0
LINE
  8
1
  6
DOT
  62
4
 10
881.553
 20
713.08
 11
860.772
 21
714.916
  0
LINE
  8
1
  6
DOT
  62
4
 10
860.772
 20
714.916
 11
842.025
 21
720.243
  0
LINE
  8
1
  6
DOT
  62
4
 10
842.025
 20
720.243
 11
827.147
 21
728.539
  0
LINE
  8
1
  6
DOT
  62
4
 10
827.147
 20
728.539
 11
817.595
 21
738.992
  0
LINE
  8
1
  6
DOT
  62
4
 10
817.595
 20
738.992
 11
814.304
 21
750.58
  0
LINE
  8
1
  6
DOT
  62
4
 10
814.304
 20
750.58
 11
817.595
 21
762.169
  0
LINE
  8
1
  6
DOT
  62
4
 10
817.595
 20
762.169
 11
827.147
 21
772.623
  0
LINE
  8
1
  6
DOT
  62
4
 10
827.147
 20
772.623
 11
842.025
 21
780.919
  0
LINE
  8
1
  6
DOT
  62
4
 10
842.025
 20
780.919
 11
860.772
 21
786.245
  0
LINE
  8
1
  6
DOT
  62
4
 10
860.772
 20
786.245
 11
881.553
 21
788.08
  0
LINE
  8
1
  6
DOT
  62
4
 10
881.553
 20
788.08
 11
902.335
 21
786.245
  0
LINE
  8
1
  6
DOT
  62
4
 10
902.335
 20
786.245
 11
921.082
 21
780.919
  0
LINE
  8
1
  6
DOT
  62
4
 10
921.082
 20
780.919
 11
935.96
 21
772.623
  0
LINE
  8
1
  6
DOT
  62
4
 10
935.96
 20
772.623
 11
945.512
 21
762.169
  0
LINE
  8
1
  6
DOT
  62
4
 10
945.512
 20
762.169
 11
948.804
 21
750.58
  0
LINE
  8
1
  6
DOT
  62
4
 10
948.804
 20
837.798
 11
945.512
 21
826.21
  0
LINE
  8
1
  6
DOT
  62
4
 10
945.512
 20
826.21
 11
935.96
 21
815.756
  0
LINE
  8
1
  6
DOT
  62
4
 10
935.96
 20
815.756
 11
921.082
 21
807.46
  0
LINE
  8
1
  6
DOT
  62
4
 10
921.082
 20
807.46
 11
902.335
 21
802.134
  0
LINE
  8
1
  6
DOT
  62
4
 10
902.335
 20
802.134
 11
881.553
 21
800.298
  0
LINE
  8
1
  6
DOT
  62
4
 10
881.553
 20
800.298
 11
860.772
 21
802.134
  0
LINE
  8
1
  6
DOT
  62
4
 10
860.772
 20
802.134
 11
842.025
 21
807.46
  0
LINE
  8
1
  6
DOT
  62
4
 10
842.025
 20
807.46
 11
827.147
 21
815.756
  0
LINE
  8
1
  6
DOT
  62
4
 10
827.147
 20
815.756
 11
817.595
 21
826.21
  0
LINE
  8
1
  6
DOT
  62
4
 10
817.595
 20
826.21
 11
814.304
 21
837.798
  0
LINE
  8
1
  6
DOT
  62
4
 10
814.304
 20
837.798
 11
817.595
 21
849.387
  0
LINE
  8
1
  6
DOT
  62
4
 10
817.595
 20
849.387
 11
827.147
 21
859.84
  0
LINE
  8
1
  6
DOT
  62
4
 10
827.147
 20
859.84
 11
842.025
 21
868.136
  0
LINE
  8
1
  6
DOT
  62
4
 10
842.025
 20
868.136
 11
860.772
 21
873.463
  0
LINE
  8
1
  6
DOT
  62
4
 10
860.772
 20
873.463
 11
881.553
 21
875.298
  0
LINE
  8
1
  6
DOT
  62
4
 10
881.553
 20
875.298
 11
902.335
 21
873.463
  0
LINE
  8
1
  6
DOT
  62
4
 10
902.335
 20
873.463
 11
921.082
 21
868.136
  0
LINE
  8
1
  6
DOT
  62
4
 10
921.082
 20
868.136
 11
935.96
 21
859.84
  0
LINE
  8
1
  6
DOT
  62
4
 10
935.96
 20
859.84
 11
945.512
 21
849.387
  0
LINE
  8
1
  6
DOT
  62
4
 10
945.512
 20
849.387
 11
948.804
 21
837.798
  0
LINE
  8
1
  6
DOT
  62
4
 10
945.512
 20
935.578
 11
948.804
 21
923.99
  0
LINE
  8
1
  6
DOT
  62
4
 10
935.96
 20
946.032
 11
945.512
 21
935.578
  0
LINE
  8
1
  6
DOT
  62
4
 10
921.082
 20
954.328
 11
935.96
 21
946.032
  0
LINE
  8
1
  6
DOT
  62
4
 10
902.335
 20
959.654
 11
921.082
 21
954.328
  0
LINE
  8
1
  6
DOT
  62
4
 10
881.553
 20
961.49
 11
902.335
 21
959.654
  0
LINE
  8
1
  6
DOT
  62
4
 10
860.772
 20
959.654
 11
881.553
 21
961.49
  0
LINE
  8
1
  6
DOT
  62
4
 10
842.025
 20
954.328
 11
860.772
 21
959.654
  0
LINE
  8
1
  6
DOT
  62
4
 10
827.147
 20
946.032
 11
842.025
 21
954.328
  0
LINE
  8
1
  6
DOT
  62
4
 10
817.595
 20
935.578
 11
827.147
 21
946.032
  0
LINE
  8
1
  6
DOT
  62
4
 10
814.304
 20
923.99
 11
817.595
 21
935.578
  0
LINE
  8
1
  6
DOT
  62
4
 10
817.595
 20
912.401
 11
814.304
 21
923.99
  0
LINE
  8
1
  6
DOT
  62
4
 10
827.147
 20
901.948
 11
817.595
 21
912.401
  0
LINE
  8
1
  6
DOT
  62
4
 10
842.025
 20
893.652
 11
827.147
 21
901.948
  0
LINE
  8
1
  6
DOT
  62
4
 10
860.772
 20
888.325
 11
842.025
 21
893.652
  0
LINE
  8
1
  6
DOT
  62
4
 10
881.553
 20
886.49
 11
860.772
 21
888.325
  0
LINE
  8
1
  6
DOT
  62
4
 10
902.335
 20
888.325
 11
881.553
 21
886.49
  0
LINE
  8
1
  6
DOT
  62
4
 10
921.082
 20
893.652
 11
902.335
 21
888.325
  0
LINE
  8
1
  6
DOT
  62
4
 10
935.96
 20
901.948
 11
921.082
 21
893.652
  0
LINE
  8
1
  6
DOT
  62
4
 10
945.512
 20
912.401
 11
935.96
 21
901.948
  0
LINE
  8
1
  6
DOT
  62
4
 10
948.804
 20
923.99
 11
945.512
 21
912.401
  0
LINE
  8
1
  6
DOT
  62
4
 10
653.804
 20
923.99
 11
657.095
 21
912.401
  0
LINE
  8
1
  6
DOT
  62
4
 10
657.095
 20
912.401
 11
666.647
 21
901.948
  0
LINE
  8
1
  6
DOT
  62
4
 10
666.647
 20
901.948
 11
681.525
 21
893.652
  0
LINE
  8
1
  6
DOT
  62
4
 10
681.525
 20
893.652
 11
700.272
 21
888.325
  0
LINE
  8
1
  6
DOT
  62
4
 10
700.272
 20
888.325
 11
721.053
 21
886.49
  0
LINE
  8
1
  6
DOT
  62
4
 10
721.053
 20
886.49
 11
741.835
 21
888.325
  0
LINE
  8
1
  6
DOT
  62
4
 10
741.835
 20
888.325
 11
760.582
 21
893.652
  0
LINE
  8
1
  6
DOT
  62
4
 10
760.582
 20
893.652
 11
775.46
 21
901.948
  0
LINE
  8
1
  6
DOT
  62
4
 10
775.46
 20
901.948
 11
785.012
 21
912.401
  0
LINE
  8
1
  6
DOT
  62
4
 10
785.012
 20
912.401
 11
788.304
 21
923.99
  0
LINE
  8
1
  6
DOT
  62
4
 10
788.304
 20
923.99
 11
785.012
 21
935.578
  0
LINE
  8
1
  6
DOT
  62
4
 10
785.012
 20
935.578
 11
775.46
 21
946.032
  0
LINE
  8
1
  6
DOT
  62
4
 10
775.46
 20
946.032
 11
760.582
 21
954.328
  0
LINE
  8
1
  6
DOT
  62
4
 10
760.582
 20
954.328
 11
741.835
 21
959.654
  0
LINE
  8
1
  6
DOT
  62
4
 10
741.835
 20
959.654
 11
721.053
 21
961.49
  0
LINE
  8
1
  6
DOT
  62
4
 10
721.053
 20
961.49
 11
700.272
 21
959.654
  0
LINE
  8
1
  6
DOT
  62
4
 10
700.272
 20
959.654
 11
681.525
 21
954.328
  0
LINE
  8
1
  6
DOT
  62
4
 10
681.525
 20
954.328
 11
666.647
 21
946.032
  0
LINE
  8
1
  6
DOT
  62
4
 10
666.647
 20
946.032
 11
657.095
 21
935.578
  0
LINE
  8
1
  6
DOT
  62
4
 10
657.095
 20
935.578
 11
653.804
 21
923.99
  0
LINE
  8
1
  6
DOT
  62
4
 10
657.095
 20
849.387
 11
653.804
 21
837.798
  0
LINE
  8
1
  6
DOT
  62
4
 10
666.647
 20
859.84
 11
657.095
 21
849.387
  0
LINE
  8
1
  6
DOT
  62
4
 10
681.525
 20
868.136
 11
666.647
 21
859.84
  0
LINE
  8
1
  6
DOT
  62
4
 10
700.272
 20
873.463
 11
681.525
 21
868.136
  0
LINE
  8
1
  6
DOT
  62
4
 10
721.053
 20
875.298
 11
700.272
 21
873.463
  0
LINE
  8
1
  6
DOT
  62
4
 10
741.835
 20
873.463
 11
721.053
 21
875.298
  0
LINE
  8
1
  6
DOT
  62
4
 10
760.582
 20
868.136
 11
741.835
 21
873.463
  0
LINE
  8
1
  6
DOT
  62
4
 10
775.46
 20
859.84
 11
760.582
 21
868.136
  0
LINE
  8
1
  6
DOT
  62
4
 10
785.012
 20
849.387
 11
775.46
 21
859.84
  0
LINE
  8
1
  6
DOT
  62
4
 10
788.304
 20
837.798
 11
785.012
 21
849.387
  0
LINE
  8
1
  6
DOT
  62
4
 10
785.012
 20
826.21
 11
788.304
 21
837.798
  0
LINE
  8
1
  6
DOT
  62
4
 10
775.46
 20
815.756
 11
785.012
 21
826.21
  0
LINE
  8
1
  6
DOT
  62
4
 10
760.582
 20
807.46
 11
775.46
 21
815.756
  0
LINE
  8
1
  6
DOT
  62
4
 10
741.835
 20
802.134
 11
760.582
 21
807.46
  0
LINE
  8
1
  6
DOT
  62
4
 10
721.053
 20
800.298
 11
741.835
 21
802.134
  0
LINE
  8
1
  6
DOT
  62
4
 10
700.272
 20
802.134
 11
721.053
 21
800.298
  0
LINE
  8
1
  6
DOT
  62
4
 10
681.525
 20
807.46
 11
700.272
 21
802.134
  0
LINE
  8
1
  6
DOT
  62
4
 10
666.647
 20
815.756
 11
681.525
 21
807.46
  0
LINE
  8
1
  6
DOT
  62
4
 10
657.095
 20
826.21
 11
666.647
 21
815.756
  0
LINE
  8
1
  6
DOT
  62
4
 10
653.804
 20
837.798
 11
657.095
 21
826.21
  0
LINE
  8
1
  6
DOT
  62
4
 10
657.095
 20
762.169
 11
653.804
 21
750.58
  0
LINE
  8
1
  6
DOT
  62
4
 10
666.647
 20
772.623
 11
657.095
 21
762.169
  0
LINE
  8
1
  6
DOT
  62
4
 10
681.525
 20
780.919
 11
666.647
 21
772.623
  0
LINE
  8
1
  6
DOT
  62
4
 10
700.272
 20
786.245
 11
681.525
 21
780.919
  0
LINE
  8
1
  6
DOT
  62
4
 10
721.053
 20
788.08
 11
700.272
 21
786.245
  0
LINE
  8
1
  6
DOT
  62
4
 10
741.835
 20
786.245
 11
721.053
 21
788.08
  0
LINE
  8
1
  6
DOT
  62
4
 10
760.582
 20
780.919
 11
741.835
 21
786.245
  0
LINE
  8
1
  6
DOT
  62
4
 10
775.46
 20
772.623
 11
760.582
 21
780.919
  0
LINE
  8
1
  6
DOT
  62
4
 10
785.012
 20
762.169
 11
775.46
 21
772.623
  0
LINE
  8
1
  6
DOT
  62
4
 10
788.304
 20
750.58
 11
785.012
 21
762.169
  0
LINE
  8
1
  6
DOT
  62
4
 10
785.012
 20
738.992
 11
788.304
 21
750.58
  0
LINE
  8
1
  6
DOT
  62
4
 10
775.46
 20
728.539
 11
785.012
 21
738.992
  0
LINE
  8
1
  6
DOT
  62
4
 10
760.582
 20
720.243
 11
775.46
 21
728.539
  0
LINE
  8
1
  6
DOT
  62
4
 10
741.835
 20
714.916
 11
760.582
 21
720.243
  0
LINE
  8
1
  6
DOT
  62
4
 10
721.053
 20
713.08
 11
741.835
 21
714.916
  0
LINE
  8
1
  6
DOT
  62
4
 10
700.272
 20
714.916
 11
721.053
 21
713.08
  0
LINE
  8
1
  6
DOT
  62
4
 10
681.525
 20
720.243
 11
700.272
 21
714.916
  0
LINE
  8
1
  6
DOT
  62
4
 10
666.647
 20
728.539
 11
681.525
 21
720.243
  0
LINE
  8
1
  6
DOT
  62
4
 10
657.095
 20
738.992
 11
666.647
 21
728.539
  0
LINE
  8
1
  6
DOT
  62
4
 10
653.804
 20
750.58
 11
657.095
 21
738.992
  0
LINE
  8
1
  6
DOT
  62
4
 10
653.804
 20
1183.62
 11
657.095
 21
1195.21
  0
LINE
  8
1
  6
DOT
  62
4
 10
657.095
 20
1195.21
 11
666.647
 21
1205.66
  0
LINE
  8
1
  6
DOT
  62
4
 10
666.647
 20
1205.66
 11
681.525
 21
1213.96
  0
LINE
  8
1
  6
DOT
  62
4
 10
681.525
 20
1213.96
 11
700.272
 21
1219.28
  0
LINE
  8
1
  6
DOT
  62
4
 10
700.272
 20
1219.28
 11
721.053
 21
1221.12
  0
LINE
  8
1
  6
DOT
  62
4
 10
721.053
 20
1221.12
 11
741.835
 21
1219.28
  0
LINE
  8
1
  6
DOT
  62
4
 10
741.835
 20
1219.28
 11
760.582
 21
1213.96
  0
LINE
  8
1
  6
DOT
  62
4
 10
760.582
 20
1213.96
 11
775.46
 21
1205.66
  0
LINE
  8
1
  6
DOT
  62
4
 10
775.46
 20
1205.66
 11
785.012
 21
1195.21
  0
LINE
  8
1
  6
DOT
  62
4
 10
785.012
 20
1195.21
 11
788.304
 21
1183.62
  0
LINE
  8
1
  6
DOT
  62
4
 10
788.304
 20
1183.62
 11
785.012
 21
1172.03
  0
LINE
  8
1
  6
DOT
  62
4
 10
785.012
 20
1172.03
 11
775.46
 21
1161.58
  0
LINE
  8
1
  6
DOT
  62
4
 10
775.46
 20
1161.58
 11
760.582
 21
1153.28
  0
LINE
  8
1
  6
DOT
  62
4
 10
760.582
 20
1153.28
 11
741.835
 21
1147.95
  0
LINE
  8
1
  6
DOT
  62
4
 10
741.835
 20
1147.95
 11
721.053
 21
1146.12
  0
LINE
  8
1
  6
DOT
  62
4
 10
721.053
 20
1146.12
 11
700.272
 21
1147.95
  0
LINE
  8
1
  6
DOT
  62
4
 10
700.272
 20
1147.95
 11
681.525
 21
1153.28
  0
LINE
  8
1
  6
DOT
  62
4
 10
681.525
 20
1153.28
 11
666.647
 21
1161.58
  0
LINE
  8
1
  6
DOT
  62
4
 10
666.647
 20
1161.58
 11
657.095
 21
1172.03
  0
LINE
  8
1
  6
DOT
  62
4
 10
657.095
 20
1172.03
 11
653.804
 21
1183.62
  0
LINE
  8
1
  6
DOT
  62
4
 10
653.804
 20
1096.4
 11
657.095
 21
1107.99
  0
LINE
  8
1
  6
DOT
  62
4
 10
657.095
 20
1107.99
 11
666.647
 21
1118.44
  0
LINE
  8
1
  6
DOT
  62
4
 10
666.647
 20
1118.44
 11
681.525
 21
1126.74
  0
LINE
  8
1
  6
DOT
  62
4
 10
681.525
 20
1126.74
 11
700.272
 21
1132.07
  0
LINE
  8
1
  6
DOT
  62
4
 10
700.272
 20
1132.07
 11
721.053
 21
1133.9
  0
LINE
  8
1
  6
DOT
  62
4
 10
721.053
 20
1133.9
 11
741.835
 21
1132.07
  0
LINE
  8
1
  6
DOT
  62
4
 10
741.835
 20
1132.07
 11
760.582
 21
1126.74
  0
LINE
  8
1
  6
DOT
  62
4
 10
760.582
 20
1126.74
 11
775.46
 21
1118.44
  0
LINE
  8
1
  6
DOT
  62
4
 10
775.46
 20
1118.44
 11
785.012
 21
1107.99
  0
LINE
  8
1
  6
DOT
  62
4
 10
785.012
 20
1107.99
 11
788.304
 21
1096.4
  0
LINE
  8
1
  6
DOT
  62
4
 10
788.304
 20
1096.4
 11
785.012
 21
1084.81
  0
LINE
  8
1
  6
DOT
  62
4
 10
785.012
 20
1084.81
 11
775.46
 21
1074.36
  0
LINE
  8
1
  6
DOT
  62
4
 10
775.46
 20
1074.36
 11
760.582
 21
1066.06
  0
LINE
  8
1
  6
DOT
  62
4
 10
760.582
 20
1066.06
 11
741.835
 21
1060.74
  0
LINE
  8
1
  6
DOT
  62
4
 10
741.835
 20
1060.74
 11
721.053
 21
1058.9
  0
LINE
  8
1
  6
DOT
  62
4
 10
721.053
 20
1058.9
 11
700.272
 21
1060.74
  0
LINE
  8
1
  6
DOT
  62
4
 10
700.272
 20
1060.74
 11
681.525
 21
1066.06
  0
LINE
  8
1
  6
DOT
  62
4
 10
681.525
 20
1066.06
 11
666.647
 21
1074.36
  0
LINE
  8
1
  6
DOT
  62
4
 10
666.647
 20
1074.36
 11
657.095
 21
1084.81
  0
LINE
  8
1
  6
DOT
  62
4
 10
657.095
 20
1084.81
 11
653.804
 21
1096.4
  0
LINE
  8
1
  6
DOT
  62
4
 10
657.095
 20
998.621
 11
653.804
 21
1010.21
  0
LINE
  8
1
  6
DOT
  62
4
 10
666.647
 20
988.168
 11
657.095
 21
998.621
  0
LINE
  8
1
  6
DOT
  62
4
 10
681.525
 20
979.871
 11
666.647
 21
988.168
  0
LINE
  8
1
  6
DOT
  62
4
 10
700.272
 20
974.544
 11
681.525
 21
979.871
  0
LINE
  8
1
  6
DOT
  62
4
 10
721.053
 20
972.709
 11
700.272
 21
974.544
  0
LINE
  8
1
  6
DOT
  62
4
 10
741.835
 20
974.544
 11
721.053
 21
972.709
  0
LINE
  8
1
  6
DOT
  62
4
 10
760.582
 20
979.871
 11
741.835
 21
974.544
  0
LINE
  8
1
  6
DOT
  62
4
 10
775.46
 20
988.168
 11
760.582
 21
979.871
  0
LINE
  8
1
  6
DOT
  62
4
 10
785.012
 20
998.621
 11
775.46
 21
988.168
  0
LINE
  8
1
  6
DOT
  62
4
 10
788.304
 20
1010.21
 11
785.012
 21
998.621
  0
LINE
  8
1
  6
DOT
  62
4
 10
785.012
 20
1021.8
 11
788.304
 21
1010.21
  0
LINE
  8
1
  6
DOT
  62
4
 10
775.46
 20
1032.25
 11
785.012
 21
1021.8
  0
LINE
  8
1
  6
DOT
  62
4
 10
760.582
 20
1040.55
 11
775.46
 21
1032.25
  0
LINE
  8
1
  6
DOT
  62
4
 10
741.835
 20
1045.87
 11
760.582
 21
1040.55
  0
LINE
  8
1
  6
DOT
  62
4
 10
721.053
 20
1047.71
 11
741.835
 21
1045.87
  0
LINE
  8
1
  6
DOT
  62
4
 10
700.272
 20
1045.87
 11
721.053
 21
1047.71
  0
LINE
  8
1
  6
DOT
  62
4
 10
681.525
 20
1040.55
 11
700.272
 21
1045.87
  0
LINE
  8
1
  6
DOT
  62
4
 10
666.647
 20
1032.25
 11
681.525
 21
1040.55
  0
LINE
  8
1
  6
DOT
  62
4
 10
657.095
 20
1021.8
 11
666.647
 21
1032.25
  0
LINE
  8
1
  6
DOT
  62
4
 10
653.804
 20
1010.21
 11
657.095
 21
1021.8
  0
LINE
  8
1
  6
CONTINUOUS
  62
7
 10
660.804
 20
692.1
 11
666.804
 21
692.1
  0
LINE
  8
1
  6
CONTINUOUS
  62
7
 10
669.804
 20
682.1
 11
669.804
 21
687.1
  0
LINE
  8
1
  6
CONTINUOUS
  62
7
 10
657.804
 20
687.1
 11
669.804
 21
687.1
  0
LINE
  8
1
  6
CONTINUOUS
  62
7
 10
657.804
 20
682.1
 11
657.804
 21
687.1
  0
LINE
  8
1
  6
CONTINUOUS
  62
7
 10
666.804
 20
692.1
 11
666.804
 21
687.1
  0
LINE
  8
1
  6
CONTINUOUS
  62
7
 10
660.804
 20
692.1
 11
660.804
 21
687.1
  0
LINE
  8
1
  6
CONTINUOUS
  62
7
 10
651.266
 20
621.941
 11
651.304
 21
617.1
  0
LINE
  8
1
  6
CONTINUOUS
  62
7
 10
655.804
 20
682.1
 11
654.844
 21
678.99
  0
LINE
  8
1
  6
CONTINUOUS
  62
7
 10
654.844
 20
678.99
 11
654.34
 21
675.888
  0
LINE
  8
1
  6
CONTINUOUS
  62
7
 10
654.34
 20
675.888
 11
654.337
 21
673.306
  0
LINE
  8
1
  6
CONTINUOUS
  62
7
 10
654.337
 20
673.306
 11
654.839
 21
670.211
  0
LINE
  8
1
  6
CONTINUOUS
  62
7
 10
654.839
 20
670.211
 11
655.804
 21
667.1
  0
LINE
  8
1
  6
CONTINUOUS
  62
7
 10
657.304
 20
667.1
 11
654.502
 21
649.756
  0
LINE
  8
1
  6
CONTINUOUS
  62
7
 10
654.502
 20
649.756
 11
652.761
 21
634.338
  0
LINE
  8
1
  6
CONTINUOUS
  62
7
 10
670.304
 20
667.1
 11
673.105
 21
649.756
  0
LINE
  8
1
  6
CONTINUOUS
  62
7
 10
672.768
 20
670.211
 11
671.804
 21
667.1
  0
LINE
  8
1
  6
CONTINUOUS
  62
7
 10
673.27
 20
673.306
 11
672.768
 21
670.211
  0
LINE
  8
1
  6
CONTINUOUS
  62
7
 10
673.268
 20
675.888
 11
673.27
 21
673.306
  0
LINE
  8
1
  6
CONTINUOUS
  62
7
 10
672.762
 20
678.99
 11
673.268
 21
675.888
  0
LINE
  8
1
  6
CONTINUOUS
  62
7
 10
671.804
 20
682.1
 11
672.762
 21
678.99
  0
LINE
  8
1
  6
CONTINUOUS
  62
7
 10
676.341
 20
621.941
 11
676.304
 21
617.1
  0
LINE
  8
1
  6
CONTINUOUS
  62
7
 10
655.804
 20
667.1
 11
671.804
 21
667.1
  0
LINE
  8
1
  6
CONTINUOUS
  62
7
 10
655.804
 20
682.1
 11
671.804
 21
682.1
  0
LINE
  8
1
  6
CONTINUOUS
  62
7
 10
673.105
 20
649.756
 11
674.846
 21
634.338
  0
LINE
  8
1
  6
CONTINUOUS
  62
7
 10
674.846
 20
634.338
 11
676.304
 21
617.1
  0
LINE
  8
1
  6
CONTINUOUS
  62
7
 10
676.304
 20
617.1
 11
676.304
 21
564.1
  0
LINE
  8
1
  6
CONTINUOUS
  62
7
 10
653.304
 20
562.1
 11
674.304
 21
562.1
  0
LINE
  8
1
  6
CONTINUOUS
  62
7
 10
651.304
 20
617.1
 11
651.304
 21
564.1
  0
LINE
  8
1
  6
CONTINUOUS
  62
7
 10
652.761
 20
634.338
 11
651.304
 21
617.1
  0
LINE
  8
1
  6
DASHDOT
  62
7
 10
663.804
 20
701.812
 11
663.804
 21
555.84
  0
LINE
  8
1
  6
CONTINUOUS
  62
7
 10
915.804
 20
692.1
 11
921.804
 21
692.1
  0
LINE
  8
1
  6
CONTINUOUS
  62
7
 10
924.804
 20
682.1
 11
924.804
 21
687.1
  0
LINE
  8
1
  6
CONTINUOUS
  62
7
 10
912.804
 20
687.1
 11
924.804
 21
687.1
  0
LINE
  8
1
  6
CONTINUOUS
  62
7
 10
912.804
 20
682.1
 11
912.804
 21
687.1
  0
LINE
  8
1
  6
CONTINUOUS
  62
7
 10
921.804
 20
692.1
 11
921.804
 21
687.1
  0
LINE
  8
1
  6
CONTINUOUS
  62
7
 10
915.804
 20
692.1
 11
915.804
 21
687.1
  0
LINE
  8
1
  6
CONTINUOUS
  62
7
 10
906.266
 20
621.941
 11
906.304
 21
617.1
  0
LINE
  8
1
  6
CONTINUOUS
  62
7
 10
910.804
 20
682.1
 11
909.844
 21
678.99
  0
LINE
  8
1
  6
CONTINUOUS
  62
7
 10
909.844
 20
678.99
 11
909.34
 21
675.888
  0
LINE
  8
1
  6
CONTINUOUS
  62
7
 10
909.34
 20
675.888
 11
909.337
 21
673.306
  0
LINE
  8
1
  6
CONTINUOUS
  62
7
 10
909.337
 20
673.306
 11
909.839
 21
670.211
  0
LINE
  8
1
  6
CONTINUOUS
  62
7
 10
909.839
 20
670.211
 11
910.804
 21
667.1
  0
LINE
  8
1
  6
CONTINUOUS
  62
7
 10
912.304
 20
667.1
 11
909.502
 21
649.756
  0
LINE
  8
1
  6
CONTINUOUS
  62
7
 10
909.502
 20
649.756
 11
907.761
 21
634.338
  0
LINE
  8
1
  6
CONTINUOUS
  62
7
 10
925.304
 20
667.1
 11
928.105
 21
649.756
  0
LINE
  8
1
  6
CONTINUOUS
  62
7
 10
927.768
 20
670.211
 11
926.804
 21
667.1
  0
LINE
  8
1
  6
CONTINUOUS
  62
7
 10
928.27
 20
673.306
 11
927.768
 21
670.211
  0
LINE
  8
1
  6
CONTINUOUS
  62
7
 10
928.268
 20
675.888
 11
928.27
 21
673.306
  0
LINE
  8
1
  6
CONTINUOUS
  62
7
 10
927.762
 20
678.99
 11
928.268
 21
675.888
  0
LINE
  8
1
  6
CONTINUOUS
  62
7
 10
926.804
 20
682.1
 11
927.762
 21
678.99
  0
LINE
  8
1
  6
CONTINUOUS
  62
7
 10
931.341
 20
621.941
 11
931.304
 21
617.1
  0
LINE
  8
1
  6
CONTINUOUS
  62
7
 10
910.804
 20
667.1
 11
926.804
 21
667.1
  0
LINE
  8
1
  6
CONTINUOUS
  62
7
 10
910.804
 20
682.1
 11
926.804
 21
682.1
  0
LINE
  8
1
  6
CONTINUOUS
  62
7
 10
928.105
 20
649.756
 11
929.846
 21
634.338
  0
LINE
  8
1
  6
CONTINUOUS
  62
7
 10
929.846
 20
634.338
 11
931.304
 21
617.1
  0
LINE
  8
1
  6
CONTINUOUS
  62
7
 10
931.304
 20
617.1
 11
931.304
 21
564.1
  0
LINE
  8
1
  6
CONTINUOUS
  62
7
 10
908.304
 20
562.1
 11
929.304
 21
562.1
  0
LINE
  8
1
  6
CONTINUOUS
  62
7
 10
906.304
 20
617.1
 11
906.304
 21
564.1
  0
LINE
  8
1
  6
CONTINUOUS
  62
7
 10
907.761
 20
634.338
 11
906.304
 21
617.1
  0
LINE
  8
1
  6
DASHDOT
  62
7
 10
918.804
 20
701.812
 11
918.804
 21
555.84
  0
LINE
  8
1
  6
CONTINUOUS
  62
3
 10
538.304
 20
655.207
 11
538.304
 21
659.207
  0
LINE
  8
1
  6
CONTINUOUS
  62
3
 10
536.304
 20
655.207
 11
536.304
 21
646.207
  0
LINE
  8
1
  6
CONTINUOUS
  62
3
 10
586.304
 20
655.207
 11
536.304
 21
655.207
  0
LINE
  8
1
  6
CONTINUOUS
  62
3
 10
536.304
 20
646.207
 11
586.304
 21
646.207
  0
LINE
  8
1
  6
CONTINUOUS
  62
3
 10
584.304
 20
659.207
 11
538.304
 21
659.207
  0
LINE
  8
1
  6
CONTINUOUS
  62
3
 10
578.304
 20
672.207
 11
578.304
 21
679.707
  0
LINE
  8
1
  6
CONTINUOUS
  62
3
 10
544.304
 20
679.707
 11
544.304
 21
672.207
  0
LINE
  8
1
  6
CONTINUOUS
  62
3
 10
566.304
 20
612.057
 11
578.804
 21
612.057
  0
LINE
  8
1
  6
CONTINUOUS
  62
3
 10
555.304
 20
629.207
 11
554.304
 21
629.207
  0
LINE
  8
1
  6
CONTINUOUS
  62
3
 10
567.304
 20
629.207
 11
567.304
 21
625.825
  0
LINE
  8
1
  6
CONTINUOUS
  62
3
 10
555.304
 20
625.825
 11
555.304
 21
629.207
  0
LINE
  8
1
  6
CONTINUOUS
  62
3
 10
568.304
 20
629.207
 11
567.304
 21
629.207
  0
LINE
  8
1
  6
CONTINUOUS
  62
3
 10
568.304
 20
631.705
 11
568.304
 21
629.207
  0
LINE
  8
1
  6
CONTINUOUS
  62
3
 10
566.304
 20
646.207
 11
566.304
 21
644.207
  0
LINE
  8
1
  6
CONTINUOUS
  62
3
 10
556.304
 20
644.207
 11
556.304
 21
646.207
  0
LINE
  8
1
  6
CONTINUOUS
  62
3
 10
566.304
 20
615.207
 11
566.304
 21
612.057
  0
LINE
  8
1
  6
CONTINUOUS
  62
3
 10
556.304
 20
612.057
 11
556.304
 21
615.207
  0
LINE
  8
1
  6
CONTINUOUS
  62
3
 10
566.804
 20
624.707
 11
566.804
 21
615.207
  0
LINE
  8
1
  6
CONTINUOUS
  62
3
 10
566.804
 20
615.207
 11
555.804
 21
615.207
  0
LINE
  8
1
  6
CONTINUOUS
  62
3
 10
555.804
 20
615.207
 11
555.804
 21
624.707
  0
LINE
  8
1
  6
CONTINUOUS
  62
3
 10
568.304
 20
644.207
 11
568.304
 21
635.71
  0
LINE
  8
1
  6
CONTINUOUS
  62
3
 10
567.304
 20
626.207
 11
555.304
 21
626.207
  0
LINE
  8
1
  6
CONTINUOUS
  62
3
 10
554.304
 20
629.207
 11
554.304
 21
644.207
  0
LINE
  8
1
  6
CONTINUOUS
  62
3
 10
554.304
 20
644.207
 11
568.304
 21
644.207
  0
LINE
  8
1
  6
CONTINUOUS
  62
3
 10
584.304
 20
655.207
 11
584.304
 21
659.207
  0
LINE
  8
1
  6
CONTINUOUS
  62
3
 10
586.304
 20
646.207
 11
586.304
 21
655.207
  0
LINE
  8
1
  6
CONTINUOUS
  62
3
 10
575.091
 20
630.207
 11
587.894
 21
630.207
  0
LINE
  8
1
  6
CONTINUOUS
  62
3
 10
575.091
 20
637.207
 11
587.894
 21
637.207
  0
LINE
  8
1
  6
CONTINUOUS
  62
3
 10
561.304
 20
679.707
 11
561.304
 21
601.207
  0
LINE
  8
1
  6
CONTINUOUS
  62
3
 10
566.304
 20
612.057
 11
716.304
 21
612.057
  0
LINE
  8
1
  6
CONTINUOUS
  62
3
 10
587.893
 20
637.208
 11
587.893
 21
630.208
  0
LINE
  8
1
  6
CONTINUOUS
  62
3
 10
747.893
 20
637.208
 11
747.893
 21
630.208
  0
LINE
  8
1
  6
CONTINUOUS
  62
3
 10
726.304
 20
612.057
 11
876.304
 21
612.057
  0
LINE
  8
1
  6
CONTINUOUS
  62
3
 10
721.304
 20
679.707
 11
721.304
 21
601.207
  0
LINE
  8
1
  6
CONTINUOUS
  62
3
 10
735.091
 20
637.207
 11
747.894
 21
637.207
  0
LINE
  8
1
  6
CONTINUOUS
  62
3
 10
735.091
 20
630.207
 11
747.894
 21
630.207
  0
LINE
  8
1
  6
CONTINUOUS
  62
3
 10
746.304
 20
646.207
 11
746.304
 21
655.207
  0
LINE
  8
1
  6
CONTINUOUS
  62
3
 10
744.304
 20
655.207
 11
744.304
 21
659.207
  0
LINE
  8
1
  6
CONTINUOUS
  62
3
 10
714.304
 20
644.207
 11
728.304
 21
644.207
  0
LINE
  8
1
  6
CONTINUOUS
  62
3
 10
714.304
 20
629.207
 11
714.304
 21
644.207
  0
LINE
  8
1
  6
CONTINUOUS
  62
3
 10
727.304
 20
626.207
 11
715.304
 21
626.207
  0
LINE
  8
1
  6
CONTINUOUS
  62
3
 10
728.304
 20
644.207
 11
728.304
 21
635.71
  0
LINE
  8
1
  6
CONTINUOUS
  62
3
 10
715.804
 20
615.207
 11
715.804
 21
624.707
  0
LINE
  8
1
  6
CONTINUOUS
  62
3
 10
726.804
 20
615.207
 11
715.804
 21
615.207
  0
LINE
  8
1
  6
CONTINUOUS
  62
3
 10
726.804
 20
624.707
 11
726.804
 21
615.207
  0
LINE
  8
1
  6
CONTINUOUS
  62
3
 10
716.304
 20
612.057
 11
716.304
 21
615.207
  0
LINE
  8
1
  6
CONTINUOUS
  62
3
 10
726.304
 20
615.207
 11
726.304
 21
612.057
  0
LINE
  8
1
  6
CONTINUOUS
  62
3
 10
716.304
 20
644.207
 11
716.304
 21
646.207
  0
LINE
  8
1
  6
CONTINUOUS
  62
3
 10
726.304
 20
646.207
 11
726.304
 21
644.207
  0
LINE
  8
1
  6
CONTINUOUS
  62
3
 10
728.304
 20
631.705
 11
728.304
 21
629.207
  0
LINE
  8
1
  6
CONTINUOUS
  62
3
 10
728.304
 20
629.207
 11
727.304
 21
629.207
  0
LINE
  8
1
  6
CONTINUOUS
  62
3
 10
715.304
 20
625.825
 11
715.304
 21
629.207
  0
LINE
  8
1
  6
CONTINUOUS
  62
3
 10
727.304
 20
629.207
 11
727.304
 21
625.825
  0
LINE
  8
1
  6
CONTINUOUS
  62
3
 10
715.304
 20
629.207
 11
714.304
 21
629.207
  0
LINE
  8
1
  6
CONTINUOUS
  62
3
 10
726.304
 20
612.057
 11
738.804
 21
612.057
  0
LINE
  8
1
  6
CONTINUOUS
  62
3
 10
704.304
 20
679.707
 11
704.304
 21
672.207
  0
LINE
  8
1
  6
CONTINUOUS
  62
3
 10
738.304
 20
672.207
 11
738.304
 21
679.707
  0
LINE
  8
1
  6
CONTINUOUS
  62
3
 10
744.304
 20
659.207
 11
698.304
 21
659.207
  0
LINE
  8
1
  6
CONTINUOUS
  62
3
 10
696.304
 20
646.207
 11
746.304
 21
646.207
  0
LINE
  8
1
  6
CONTINUOUS
  62
3
 10
746.304
 20
655.207
 11
696.304
 21
655.207
  0
LINE
  8
1
  6
CONTINUOUS
  62
3
 10
696.304
 20
655.207
 11
696.304
 21
646.207
  0
LINE
  8
1
  6
CONTINUOUS
  62
3
 10
698.304
 20
655.207
 11
698.304
 21
659.207
  0
LINE
  8
1
  6
CONTINUOUS
  62
3
 10
930.804
 20
607.707
 11
930.804
 21
594.707
  0
LINE
  8
1
  6
CONTINUOUS
  62
3
 10
930.804
 20
594.707
 11
942.304
 21
594.707
  0
LINE
  8
1
  6
CONTINUOUS
  62
3
 10
942.304
 20
607.707
 11
930.804
 21
607.707
  0
LINE
  8
1
  6
CONTINUOUS
  62
3
 10
930.804
 20
606.207
 11
928.804
 21
606.207
  0
LINE
  8
1
  6
CONTINUOUS
  62
3
 10
928.804
 20
596.207
 11
930.804
 21
596.207
  0
LINE
  8
1
  6
CONTINUOUS
  62
3
 10
886.304
 20
612.057
 11
918.804
 21
612.057
  0
LINE
  8
1
  6
CONTINUOUS
  62
3
 10
858.304
 20
655.207
 11
858.304
 21
659.207
  0
LINE
  8
1
  6
CONTINUOUS
  62
3
 10
856.304
 20
655.207
 11
856.304
 21
646.207
  0
LINE
  8
1
  6
CONTINUOUS
  62
3
 10
906.304
 20
655.207
 11
856.304
 21
655.207
  0
LINE
  8
1
  6
CONTINUOUS
  62
3
 10
856.304
 20
646.207
 11
906.304
 21
646.207
  0
LINE
  8
1
  6
CONTINUOUS
  62
3
 10
904.304
 20
659.207
 11
858.304
 21
659.207
  0
LINE
  8
1
  6
CONTINUOUS
  62
3
 10
898.304
 20
672.207
 11
898.304
 21
679.707
  0
LINE
  8
1
  6
CONTINUOUS
  62
3
 10
864.304
 20
679.707
 11
864.304
 21
672.207
  0
LINE
  8
1
  6
CONTINUOUS
  62
3
 10
875.304
 20
629.207
 11
874.304
 21
629.207
  0
LINE
  8
1
  6
CONTINUOUS
  62
3
 10
887.304
 20
629.207
 11
887.304
 21
625.825
  0
LINE
  8
1
  6
CONTINUOUS
  62
3
 10
875.304
 20
625.825
 11
875.304
 21
629.207
  0
LINE
  8
1
  6
CONTINUOUS
  62
3
 10
888.304
 20
629.207
 11
887.304
 21
629.207
  0
LINE
  8
1
  6
CONTINUOUS
  62
3
 10
888.304
 20
631.705
 11
888.304
 21
629.207
  0
LINE
  8
1
  6
CONTINUOUS
  62
3
 10
886.304
 20
646.207
 11
886.304
 21
644.207
  0
LINE
  8
1
  6
CONTINUOUS
  62
3
 10
876.304
 20
644.207
 11
876.304
 21
646.207
  0
LINE
  8
1
  6
CONTINUOUS
  62
3
 10
886.304
 20
615.207
 11
886.304
 21
612.057
  0
LINE
  8
1
  6
CONTINUOUS
  62
3
 10
876.304
 20
612.057
 11
876.304
 21
615.207
  0
LINE
  8
1
  6
CONTINUOUS
  62
3
 10
886.804
 20
624.707
 11
886.804
 21
615.207
  0
LINE
  8
1
  6
CONTINUOUS
  62
3
 10
886.804
 20
615.207
 11
875.804
 21
615.207
  0
LINE
  8
1
  6
CONTINUOUS
  62
3
 10
875.804
 20
615.207
 11
875.804
 21
624.707
  0
LINE
  8
1
  6
CONTINUOUS
  62
3
 10
888.304
 20
644.207
 11
888.304
 21
635.71
  0
LINE
  8
1
  6
CONTINUOUS
  62
3
 10
887.304
 20
626.207
 11
875.304
 21
626.207
  0
LINE
  8
1
  6
CONTINUOUS
  62
3
 10
874.304
 20
629.207
 11
874.304
 21
644.207
  0
LINE
  8
1
  6
CONTINUOUS
  62
3
 10
874.304
 20
644.207
 11
888.304
 21
644.207
  0
LINE
  8
1
  6
CONTINUOUS
  62
3
 10
904.304
 20
655.207
 11
904.304
 21
659.207
  0
LINE
  8
1
  6
CONTINUOUS
  62
3
 10
906.304
 20
646.207
 11
906.304
 21
655.207
  0
LINE
  8
1
  6
CONTINUOUS
  62
3
 10
895.091
 20
630.207
 11
907.894
 21
630.207
  0
LINE
  8
1
  6
CONTINUOUS
  62
3
 10
895.091
 20
637.207
 11
907.894
 21
637.207
  0
LINE
  8
1
  6
CONTINUOUS
  62
3
 10
881.304
 20
679.707
 11
881.304
 21
601.207
  0
LINE
  8
1
  6
CONTINUOUS
  62
3
 10
907.892
 20
637.209
 11
907.892
 21
630.209
  0
LINE
  8
1
  6
CONTINUOUS
  62
3
 10
427.893
 20
637.208
 11
427.893
 21
630.208
  0
LINE
  8
1
  6
CONTINUOUS
  62
3
 10
406.304
 20
612.057
 11
556.304
 21
612.057
  0
LINE
  8
1
  6
CONTINUOUS
  62
3
 10
378.304
 20
655.207
 11
378.304
 21
659.207
  0
LINE
  8
1
  6
CONTINUOUS
  62
3
 10
376.304
 20
655.207
 11
376.304
 21
646.207
  0
LINE
  8
1
  6
CONTINUOUS
  62
3
 10
418.304
 20
672.207
 11
418.304
 21
679.707
  0
LINE
  8
1
  6
CONTINUOUS
  62
3
 10
384.304
 20
679.707
 11
384.304
 21
672.207
  0
LINE
  8
1
  6
CONTINUOUS
  62
3
 10
406.304
 20
612.057
 11
418.804
 21
612.057
  0
LINE
  8
1
  6
CONTINUOUS
  62
3
 10
395.304
 20
629.207
 11
394.304
 21
629.207
  0
LINE
  8
1
  6
CONTINUOUS
  62
3
 10
407.304
 20
629.207
 11
407.304
 21
625.825
  0
LINE
  8
1
  6
CONTINUOUS
  62
3
 10
395.304
 20
625.825
 11
395.304
 21
629.207
  0
LINE
  8
1
  6
CONTINUOUS
  62
3
 10
408.304
 20
629.207
 11
407.304
 21
629.207
  0
LINE
  8
1
  6
CONTINUOUS
  62
3
 10
408.304
 20
631.705
 11
408.304
 21
629.207
  0
LINE
  8
1
  6
CONTINUOUS
  62
3
 10
406.304
 20
646.207
 11
406.304
 21
644.207
  0
LINE
  8
1
  6
CONTINUOUS
  62
3
 10
396.304
 20
644.207
 11
396.304
 21
646.207
  0
LINE
  8
1
  6
CONTINUOUS
  62
3
 10
406.304
 20
615.207
 11
406.304
 21
612.057
  0
LINE
  8
1
  6
CONTINUOUS
  62
3
 10
396.304
 20
612.057
 11
396.304
 21
615.207
  0
LINE
  8
1
  6
CONTINUOUS
  62
3
 10
406.804
 20
624.707
 11
406.804
 21
615.207
  0
LINE
  8
1
  6
CONTINUOUS
  62
3
 10
406.804
 20
615.207
 11
395.804
 21
615.207
  0
LINE
  8
1
  6
CONTINUOUS
  62
3
 10
395.804
 20
615.207
 11
395.804
 21
624.707
  0
LINE
  8
1
  6
CONTINUOUS
  62
3
 10
408.304
 20
644.207
 11
408.304
 21
635.71
  0
LINE
  8
1
  6
CONTINUOUS
  62
3
 10
407.304
 20
626.207
 11
395.304
 21
626.207
  0
LINE
  8
1
  6
CONTINUOUS
  62
3
 10
394.304
 20
629.207
 11
394.304
 21
644.207
  0
LINE
  8
1
  6
CONTINUOUS
  62
3
 10
394.304
 20
644.207
 11
408.304
 21
644.207
  0
LINE
  8
1
  6
CONTINUOUS
  62
3
 10
424.304
 20
655.207
 11
424.304
 21
659.207
  0
LINE
  8
1
  6
CONTINUOUS
  62
3
 10
426.304
 20
646.207
 11
426.304
 21
655.207
  0
LINE
  8
1
  6
CONTINUOUS
  62
3
 10
426.304
 20
655.207
 11
376.304
 21
655.207
  0
LINE
  8
1
  6
CONTINUOUS
  62
3
 10
376.304
 20
646.207
 11
426.304
 21
646.207
  0
LINE
  8
1
  6
CONTINUOUS
  62
3
 10
424.304
 20
659.207
 11
378.304
 21
659.207
  0
LINE
  8
1
  6
CONTINUOUS
  62
3
 10
415.091
 20
630.207
 11
427.894
 21
630.207
  0
LINE
  8
1
  6
CONTINUOUS
  62
3
 10
415.091
 20
637.207
 11
427.894
 21
637.207
  0
LINE
  8
1
  6
CONTINUOUS
  62
3
 10
918.804
 20
590.357
 11
363.804
 21
590.357
  0
LINE
  8
1
  6
CONTINUOUS
  62
3
 10
363.804
 20
590.357
 11
356.804
 21
590.707
  0
LINE
  8
1
  6
CONTINUOUS
  62
3
 10
363.804
 20
612.057
 11
356.804
 21
611.707
  0
LINE
  8
1
  6
CONTINUOUS
  62
3
 10
363.804
 20
612.057
 11
396.304
 21
612.057
  0
LINE
  8
1
  6
CONTINUOUS
  62
3
 10
341.416
 20
587.707
 11
356.804
 21
587.707
  0
LINE
  8
1
  6
CONTINUOUS
  62
3
 10
341.416
 20
614.707
 11
356.804
 21
614.707
  0
LINE
  8
1
  6
CONTINUOUS
  62
3
 10
356.804
 20
586.207
 11
356.804
 21
616.207
  0
LINE
  8
1
  6
CONTINUOUS
  62
3
 10
341.626
 20
586.207
 11
356.804
 21
586.207
  0
LINE
  8
1
  6
CONTINUOUS
  62
3
 10
356.804
 20
616.207
 11
341.626
 21
616.207
  0
LINE
  8
1
  6
DASHDOT
  62
4
 10
936.483
 20
601.207
 11
356.804
 21
601.207
  0
LINE
  8
1
  6
CONTINUOUS
  62
3
 10
401.304
 20
679.707
 11
401.304
 21
587.703
  0
LINE
  8
1
  6
CONTINUOUS
  62
3
 10
413.804
 20
720.357
 11
413.804
 21
659.207
  0
LINE
  8
1
  6
CONTINUOUS
  62
3
 10
573.804
 20
720.357
 11
573.804
 21
659.207
  0
LINE
  8
1
  6
CONTINUOUS
  62
3
 10
733.804
 20
720.357
 11
733.804
 21
659.207
  0
LINE
  8
1
  6
CONTINUOUS
  62
3
 10
893.804
 20
720.357
 11
893.804
 21
659.207
  0
LINE
  8
1
  6
CONTINUOUS
  62
3
 10
868.804
 20
720.357
 11
868.804
 21
659.207
  0
LINE
  8
1
  6
CONTINUOUS
  62
3
 10
708.804
 20
720.357
 11
708.804
 21
659.207
  0
LINE
  8
1
  6
CONTINUOUS
  62
3
 10
548.804
 20
720.357
 11
548.804
 21
659.207
  0
LINE
  8
1
  6
CONTINUOUS
  62
3
 10
388.804
 20
720.357
 11
388.804
 21
659.207
  0
LINE
  8
1
  6
CONTINUOUS
  62
4
 10
312.804
 20
493.786
 11
312.804
 21
428.375
  0
LINE
  8
1
  6
CONTINUOUS
  62
4
 10
966.804
 20
493.786
 11
966.804
 21
428.375
  0
LINE
  8
1
  6
CONTINUOUS
  62
4
 10
312.804
 20
493.786
 11
966.804
 21
493.786
  0
LINE
  8
1
  6
CONTINUOUS
  62
4
 10
312.804
 20
493.786
 11
320.19
 21
495.088
  0
LINE
  8
1
  6
CONTINUOUS
  62
4
 10
312.804
 20
493.786
 11
320.19
 21
492.483
  0
LINE
  8
1
  6
CONTINUOUS
  62
4
 10
966.804
 20
493.786
 11
959.418
 21
492.483
  0
LINE
  8
1
  6
CONTINUOUS
  62
4
 10
966.804
 20
493.786
 11
959.418
 21
495.088
  0
LINE
  8
1
  6
CONTINUOUS
  62
4
 10
1062.37
 20
1243.36
 11
993.429
 21
1243.36
  0
LINE
  8
1
  6
CONTINUOUS
  62
4
 10
1062.37
 20
1243.36
 11
1063.68
 21
1235.97
  0
LINE
  8
1
  6
CONTINUOUS
  62
4
 10
1062.37
 20
1243.36
 11
1061.07
 21
1235.97
  0
LINE
  8
1
  6
CONTINUOUS
  62
4
 10
1062.37
 20
223.857
 11
993.429
 21
223.857
  0
LINE
  8
1
  6
CONTINUOUS
  62
4
 10
1062.37
 20
421.857
 11
993.429
 21
421.857
  0
LINE
  8
1
  6
CONTINUOUS
  62
4
 10
1062.37
 20
223.857
 11
1062.37
 21
421.857
  0
LINE
  8
1
  6
CONTINUOUS
  62
4
 10
1062.37
 20
223.857
 11
1061.07
 21
231.243
  0
LINE
  8
1
  6
CONTINUOUS
  62
4
 10
1062.37
 20
223.857
 11
1063.68
 21
231.243
  0
LINE
  8
1
  6
CONTINUOUS
  62
4
 10
1062.37
 20
421.857
 11
1063.68
 21
414.471
  0
LINE
  8
1
  6
CONTINUOUS
  62
4
 10
1062.37
 20
421.857
 11
1061.07
 21
414.471
  0
LINE
  8
1
  6
CONTINUOUS
  62
2
 10
643.804
 20
1223.36
 11
332.804
 21
1223.36
  0
LINE
  8
1
  6
CONTINUOUS
  62
2
 10
332.804
 20
710.357
 11
643.804
 21
710.357
  0
LINE
  8
1
  6
DOT
  62
2
 10
946.804
 20
1223.36
 11
643.804
 21
1223.36
  0
LINE
  8
1
  6
DOT
  62
2
 10
946.804
 20
1223.36
 11
946.804
 21
710.357
  0
LINE
  8
1
  6
DOT
  62
2
 10
643.804
 20
710.357
 11
946.804
 21
710.357
  0
LINE
  8
1
  6
CONTINUOUS
  62
2
 10
254.464
 20
223.857
 11
1083.59
 21
223.857
  0
LINE
  8
1
  6
CONTINUOUS
  62
4
 10
312.804
 20
1299.93
 11
312.804
 21
1261.04
  0
LINE
  8
1
  6
CONTINUOUS
  62
4
 10
966.804
 20
1299.93
 11
966.804
 21
1261.04
  0
LINE
  8
1
  6
CONTINUOUS
  62
4
 10
312.804
 20
1299.93
 11
966.804
 21
1299.93
  0
LINE
  8
1
  6
CONTINUOUS
  62
4
 10
312.804
 20
1299.93
 11
320.19
 21
1301.23
  0
LINE
  8
1
  6
CONTINUOUS
  62
4
 10
312.804
 20
1299.93
 11
320.19
 21
1298.63
  0
LINE
  8
1
  6
CONTINUOUS
  62
4
 10
966.804
 20
1299.93
 11
959.418
 21
1298.63
  0
LINE
  8
1
  6
CONTINUOUS
  62
4
 10
966.804
 20
1299.93
 11
959.418
 21
1301.23
  0
LINE
  8
1
  6
CONTINUOUS
  62
4
 10
1062.37
 20
680.357
 11
1063.68
 21
687.743
  0
LINE
  8
1
  6
CONTINUOUS
  62
4
 10
1062.37
 20
680.357
 11
1061.07
 21
687.743
  0
LINE
  8
1
  6
CONTINUOUS
  62
4
 10
1062.37
 20
680.357
 11
1062.37
 21
1243.36
  0
LINE
  8
1
  6
CONTINUOUS
  62
4
 10
1062.37
 20
680.357
 11
993.429
 21
680.357
  0
LINE
  8
1
  6
CONTINUOUS
  62
4
 10
1808.77
 20
493.786
 11
1801.38
 21
495.088
  0
LINE
  8
1
  6
CONTINUOUS
  62
4
 10
1808.77
 20
493.786
 11
1801.38
 21
492.483
  0
LINE
  8
1
  6
CONTINUOUS
  62
4
 10
1245.77
 20
493.786
 11
1253.15
 21
492.483
  0
LINE
  8
1
  6
CONTINUOUS
  62
4
 10
1245.77
 20
493.786
 11
1253.15
 21
495.088
  0
LINE
  8
1
  6
CONTINUOUS
  62
4
 10
1245.77
 20
493.786
 11
1808.77
 21
493.786
  0
LINE
  8
1
  6
CONTINUOUS
  62
4
 10
1808.77
 20
493.786
 11
1808.77
 21
428.375
  0
LINE
  8
1
  6
CONTINUOUS
  62
4
 10
1245.77
 20
493.786
 11
1245.77
 21
428.375
  0
LINE
  8
1
  6
CONTINUOUS
  62
4
 10
1170.21
 20
421.857
 11
1168.91
 21
414.471
  0
LINE
  8
1
  6
CONTINUOUS
  62
4
 10
1170.21
 20
421.857
 11
1171.52
 21
414.471
  0
LINE
  8
1
  6
CONTINUOUS
  62
4
 10
1170.21
 20
223.857
 11
1171.52
 21
231.243
  0
LINE
  8
1
  6
CONTINUOUS
  62
4
 10
1170.21
 20
223.857
 11
1168.91
 21
231.243
  0
LINE
  8
1
  6
CONTINUOUS
  62
4
 10
1170.21
 20
223.857
 11
1170.21
 21
421.857
  0
LINE
  8
1
  6
CONTINUOUS
  62
4
 10
1170.21
 20
421.857
 11
1189.66
 21
421.857
  0
LINE
  8
1
  6
CONTINUOUS
  62
4
 10
1170.21
 20
223.857
 11
1189.66
 21
223.857
  0
LINE
  8
1
  6
CONTINUOUS
  62
3
 10
1763.27
 20
227.857
 11
1281.27
 21
227.857
  0
LINE
  8
1
  6
CONTINUOUS
  62
3
 10
1283.77
 20
338.018
 11
1283.77
 21
339.018
  0
LINE
  8
1
  6
CONTINUOUS
  62
7
 10
1682.77
 20
377.018
 11
1682.77
 21
351.018
  0
LINE
  8
1
  6
CONTINUOUS
  62
7
 10
1678.77
 20
377.018
 11
1678.77
 21
351.018
  0
LINE
  8
1
  6
CONTINUOUS
  62
7
 10
1693.77
 20
377.018
 11
1693.77
 21
351.018
  0
LINE
  8
1
  6
CONTINUOUS
  62
7
 10
1708.77
 20
377.018
 11
1708.77
 21
351.018
  0
LINE
  8
1
  6
CONTINUOUS
  62
7
 10
1723.77
 20
377.018
 11
1723.77
 21
351.018
  0
LINE
  8
1
  6
CONTINUOUS
  62
7
 10
1738.77
 20
377.018
 11
1738.77
 21
351.018
  0
LINE
  8
1
  6
CONTINUOUS
  62
7
 10
1753.77
 20
377.018
 11
1753.77
 21
351.018
  0
LINE
  8
1
  6
CONTINUOUS
  62
7
 10
1697.77
 20
377.018
 11
1697.77
 21
351.018
  0
LINE
  8
1
  6
CONTINUOUS
  62
7
 10
1712.77
 20
377.018
 11
1712.77
 21
351.018
  0
LINE
  8
1
  6
CONTINUOUS
  62
7
 10
1727.77
 20
377.018
 11
1727.77
 21
351.018
  0
LINE
  8
1
  6
CONTINUOUS
  62
7
 10
1742.77
 20
377.018
 11
1742.77
 21
351.018
  0
LINE
  8
1
  6
CONTINUOUS
  62
7
 10
1757.77
 20
377.018
 11
1757.77
 21
351.018
  0
LINE
  8
1
  6
CONTINUOUS
  62
7
 10
1573.77
 20
377.018
 11
1573.77
 21
351.018
  0
LINE
  8
1
  6
CONTINUOUS
  62
7
 10
1588.77
 20
377.018
 11
1588.77
 21
351.018
  0
LINE
  8
1
  6
CONTINUOUS
  62
7
 10
1603.77
 20
377.018
 11
1603.77
 21
351.018
  0
LINE
  8
1
  6
CONTINUOUS
  62
7
 10
1618.77
 20
377.018
 11
1618.77
 21
351.018
  0
LINE
  8
1
  6
CONTINUOUS
  62
7
 10
1633.77
 20
377.018
 11
1633.77
 21
351.018
  0
LINE
  8
1
  6
CONTINUOUS
  62
7
 10
1648.77
 20
377.018
 11
1648.77
 21
351.018
  0
LINE
  8
1
  6
CONTINUOUS
  62
7
 10
1663.77
 20
377.018
 11
1663.77
 21
351.018
  0
LINE
  8
1
  6
CONTINUOUS
  62
7
 10
1577.77
 20
377.018
 11
1577.77
 21
351.018
  0
LINE
  8
1
  6
CONTINUOUS
  62
7
 10
1592.77
 20
377.018
 11
1592.77
 21
351.018
  0
LINE
  8
1
  6
CONTINUOUS
  62
7
 10
1607.77
 20
377.018
 11
1607.77
 21
351.018
  0
LINE
  8
1
  6
CONTINUOUS
  62
7
 10
1622.77
 20
377.018
 11
1622.77
 21
351.018
  0
LINE
  8
1
  6
CONTINUOUS
  62
7
 10
1637.77
 20
377.018
 11
1637.77
 21
351.018
  0
LINE
  8
1
  6
CONTINUOUS
  62
7
 10
1652.77
 20
377.018
 11
1652.77
 21
351.018
  0
LINE
  8
1
  6
CONTINUOUS
  62
7
 10
1667.77
 20
377.018
 11
1667.77
 21
351.018
  0
LINE
  8
1
  6
CONTINUOUS
  62
7
 10
1376.77
 20
377.018
 11
1376.77
 21
351.018
  0
LINE
  8
1
  6
CONTINUOUS
  62
7
 10
1391.77
 20
377.018
 11
1391.77
 21
351.018
  0
LINE
  8
1
  6
CONTINUOUS
  62
7
 10
1406.77
 20
377.018
 11
1406.77
 21
351.018
  0
LINE
  8
1
  6
CONTINUOUS
  62
7
 10
1421.77
 20
377.018
 11
1421.77
 21
351.018
  0
LINE
  8
1
  6
CONTINUOUS
  62
7
 10
1436.77
 20
377.018
 11
1436.77
 21
351.018
  0
LINE
  8
1
  6
CONTINUOUS
  62
7
 10
1451.77
 20
377.018
 11
1451.77
 21
351.018
  0
LINE
  8
1
  6
CONTINUOUS
  62
7
 10
1466.77
 20
377.018
 11
1466.77
 21
351.018
  0
LINE
  8
1
  6
CONTINUOUS
  62
7
 10
1380.77
 20
377.018
 11
1380.77
 21
351.018
  0
LINE
  8
1
  6
CONTINUOUS
  62
7
 10
1395.77
 20
377.018
 11
1395.77
 21
351.018
  0
LINE
  8
1
  6
CONTINUOUS
  62
7
 10
1410.77
 20
377.018
 11
1410.77
 21
351.018
  0
LINE
  8
1
  6
CONTINUOUS
  62
7
 10
1425.77
 20
377.018
 11
1425.77
 21
351.018
  0
LINE
  8
1
  6
CONTINUOUS
  62
7
 10
1440.77
 20
377.018
 11
1440.77
 21
351.018
  0
LINE
  8
1
  6
CONTINUOUS
  62
7
 10
1455.77
 20
377.018
 11
1455.77
 21
351.018
  0
LINE
  8
1
  6
CONTINUOUS
  62
7
 10
1470.77
 20
377.018
 11
1470.77
 21
351.018
  0
LINE
  8
1
  6
CONTINUOUS
  62
7
 10
1286.77
 20
377.018
 11
1286.77
 21
351.018
  0
LINE
  8
1
  6
CONTINUOUS
  62
7
 10
1301.77
 20
377.018
 11
1301.77
 21
351.018
  0
LINE
  8
1
  6
CONTINUOUS
  62
7
 10
1316.77
 20
377.018
 11
1316.77
 21
351.018
  0
LINE
  8
1
  6
CONTINUOUS
  62
7
 10
1331.77
 20
377.018
 11
1331.77
 21
351.018
  0
LINE
  8
1
  6
CONTINUOUS
  62
7
 10
1346.77
 20
377.018
 11
1346.77
 21
351.018
  0
LINE
  8
1
  6
CONTINUOUS
  62
7
 10
1290.77
 20
377.018
 11
1290.77
 21
351.018
  0
LINE
  8
1
  6
CONTINUOUS
  62
7
 10
1305.77
 20
377.018
 11
1305.77
 21
351.018
  0
LINE
  8
1
  6
CONTINUOUS
  62
7
 10
1320.77
 20
377.018
 11
1320.77
 21
351.018
  0
LINE
  8
1
  6
CONTINUOUS
  62
7
 10
1335.77
 20
377.018
 11
1335.77
 21
351.018
  0
LINE
  8
1
  6
CONTINUOUS
  62
7
 10
1350.77
 20
377.018
 11
1350.77
 21
351.018
  0
LINE
  8
1
  6
CONTINUOUS
  62
7
 10
1365.77
 20
377.018
 11
1365.77
 21
351.018
  0
LINE
  8
1
  6
CONTINUOUS
  62
7
 10
1361.77
 20
377.018
 11
1361.77
 21
351.018
  0
LINE
  8
1
  6
CONTINUOUS
  62
3
 10
1797.67
 20
401.857
 11
1797.67
 21
421.857
  0
LINE
  8
1
  6
CONTINUOUS
  62
3
 10
1247.67
 20
401.857
 11
1247.67
 21
421.857
  0
LINE
  8
1
  6
CONTINUOUS
  62
3
 10
1797.67
 20
421.857
 11
1247.67
 21
421.857
  0
LINE
  8
1
  6
CONTINUOUS
  62
7
 10
1872.67
 20
424.357
 11
1925.67
 21
424.357
  0
LINE
  8
1
  6
CONTINUOUS
  62
7
 10
1855.43
 20
422.899
 11
1872.67
 21
424.357
  0
LINE
  8
1
  6
CONTINUOUS
  62
7
 10
1797.67
 20
414.857
 11
1797.67
 21
408.857
  0
LINE
  8
1
  6
CONTINUOUS
  62
7
 10
1807.67
 20
405.857
 11
1802.67
 21
405.857
  0
LINE
  8
1
  6
CONTINUOUS
  62
7
 10
1802.67
 20
417.857
 11
1802.67
 21
405.857
  0
LINE
  8
1
  6
CONTINUOUS
  62
7
 10
1807.67
 20
417.857
 11
1802.67
 21
417.857
  0
LINE
  8
1
  6
CONTINUOUS
  62
7
 10
1797.67
 20
408.857
 11
1802.67
 21
408.857
  0
LINE
  8
1
  6
CONTINUOUS
  62
7
 10
1797.67
 20
414.857
 11
1802.67
 21
414.857
  0
LINE
  8
1
  6
CONTINUOUS
  62
7
 10
1807.67
 20
419.857
 11
1810.78
 21
420.816
  0
LINE
  8
1
  6
CONTINUOUS
  62
7
 10
1810.78
 20
420.816
 11
1813.88
 21
421.321
  0
LINE
  8
1
  6
CONTINUOUS
  62
7
 10
1813.88
 20
421.321
 11
1816.46
 21
421.323
  0
LINE
  8
1
  6
CONTINUOUS
  62
7
 10
1816.46
 20
421.323
 11
1819.56
 21
420.821
  0
LINE
  8
1
  6
CONTINUOUS
  62
7
 10
1819.56
 20
420.821
 11
1822.67
 21
419.857
  0
LINE
  8
1
  6
CONTINUOUS
  62
7
 10
1822.67
 20
418.357
 11
1840.01
 21
421.159
  0
LINE
  8
1
  6
CONTINUOUS
  62
7
 10
1840.01
 20
421.159
 11
1855.43
 21
422.899
  0
LINE
  8
1
  6
CONTINUOUS
  62
7
 10
1822.67
 20
405.357
 11
1840.01
 21
402.556
  0
LINE
  8
1
  6
CONTINUOUS
  62
7
 10
1819.56
 20
402.892
 11
1822.67
 21
403.857
  0
LINE
  8
1
  6
CONTINUOUS
  62
7
 10
1816.46
 20
402.391
 11
1819.56
 21
402.892
  0
LINE
  8
1
  6
CONTINUOUS
  62
7
 10
1813.88
 20
402.393
 11
1816.46
 21
402.391
  0
LINE
  8
1
  6
CONTINUOUS
  62
7
 10
1810.78
 20
402.898
 11
1813.88
 21
402.393
  0
LINE
  8
1
  6
CONTINUOUS
  62
7
 10
1807.67
 20
403.857
 11
1810.78
 21
402.898
  0
LINE
  8
1
  6
CONTINUOUS
  62
7
 10
1822.67
 20
419.857
 11
1822.67
 21
403.857
  0
LINE
  8
1
  6
CONTINUOUS
  62
7
 10
1807.67
 20
419.857
 11
1807.67
 21
403.857
  0
LINE
  8
1
  6
CONTINUOUS
  62
7
 10
1840.01
 20
402.556
 11
1855.43
 21
400.815
  0
LINE
  8
1
  6
CONTINUOUS
  62
7
 10
1855.43
 20
400.815
 11
1872.67
 21
399.357
  0
LINE
  8
1
  6
CONTINUOUS
  62
7
 10
1872.67
 20
399.357
 11
1925.67
 21
399.357
  0
LINE
  8
1
  6
CONTINUOUS
  62
7
 10
1927.67
 20
422.357
 11
1927.67
 21
401.357
  0
LINE
  8
1
  6
DASHDOT
  62
7
 10
1787.95
 20
411.857
 11
1933.93
 21
411.857
  0
LINE
  8
1
  6
CONTINUOUS
  62
3
 10
1797.67
 20
401.857
 11
1247.67
 21
401.857
  0
LINE
  8
1
  6
CONTINUOUS
  62
2
 10
1798.77
 20
248.857
 11
1245.77
 21
248.857
  0
LINE
  8
1
  6
CONTINUOUS
  62
2
 10
1245.77
 20
401.857
 11
1245.77
 21
247.857
  0
LINE
  8
1
  6
CONTINUOUS
  62
3
 10
1281.04
 20
226.047
 11
1283.77
 21
247.857
  0
LINE
  8
1
  6
CONTINUOUS
  62
3
 10
1278.56
 20
223.857
 11
1250.97
 21
223.857
  0
LINE
  8
1
  6
CONTINUOUS
  62
3
 10
1245.77
 20
247.857
 11
1283.77
 21
247.857
  0
LINE
  8
1
  6
CONTINUOUS
  62
3
 10
1248.49
 20
226.047
 11
1245.77
 21
247.857
  0
LINE
  8
1
  6
CONTINUOUS
  62
3
 10
1283.77
 20
247.857
 11
1245.77
 21
247.857
  0
LINE
  8
1
  6
CONTINUOUS
  62
2
 10
1798.77
 20
247.857
 11
1798.77
 21
401.857
  0
LINE
  8
1
  6
CONTINUOUS
  62
3
 10
1760.77
 20
247.857
 11
1798.77
 21
247.857
  0
LINE
  8
1
  6
CONTINUOUS
  62
3
 10
1796.04
 20
226.047
 11
1798.77
 21
247.857
  0
LINE
  8
1
  6
CONTINUOUS
  62
3
 10
1798.77
 20
247.857
 11
1760.77
 21
247.857
  0
LINE
  8
1
  6
CONTINUOUS
  62
3
 10
1765.97
 20
223.857
 11
1793.56
 21
223.857
  0
LINE
  8
1
  6
CONTINUOUS
  62
3
 10
1763.49
 20
226.047
 11
1760.77
 21
247.857
  0
LINE
  8
1
  6
CONTINUOUS
  62
3
 10
1818.08
 20
258.196
 11
1820.57
 21
244.085
  0
LINE
  8
1
  6
CONTINUOUS
  62
3
 10
1798.77
 20
258.857
 11
1817.29
 21
258.857
  0
LINE
  8
1
  6
CONTINUOUS
  62
3
 10
1798.77
 20
258.057
 11
1817.29
 21
258.057
  0
LINE
  8
1
  6
CONTINUOUS
  62
3
 10
1817.29
 20
258.057
 11
1819.78
 21
243.946
  0
LINE
  8
1
  6
CONTINUOUS
  62
3
 10
1820.57
 20
244.085
 11
1819.78
 21
243.946
  0
LINE
  8
1
  6
CONTINUOUS
  62
2
 10
1808.77
 20
391.857
 11
1798.77
 21
391.857
  0
LINE
  8
1
  6
CONTINUOUS
  62
2
 10
1808.77
 20
301.857
 11
1798.77
 21
301.857
  0
LINE
  8
1
  6
CONTINUOUS
  62
2
 10
1808.77
 20
391.857
 11
1808.77
 21
301.857
  0
LINE
  8
1
  6
CONTINUOUS
  62
2
 10
1867.99
 20
223.857
 11
1202.09
 21
223.857
  0
LINE
  8
1
  6
CONTINUOUS
  62
2
 10
1798.77
 20
401.857
 11
1245.77
 21
401.857
  0
ARC
  8
1
  6
CONTINUOUS
  62
3
 10
961.597
 20
226.357
 40
2.5
 50
270
 51
352.87
  0
ARC
  8
1
  6
CONTINUOUS
  62
3
 10
934.011
 20
226.357
 40
2.5
 50
187.13
 51
270
  0
ARC
  8
1
  6
CONTINUOUS
  62
3
 10
345.597
 20
226.357
 40
2.5
 50
270
 51
352.87
  0
ARC
  8
1
  6
CONTINUOUS
  62
3
 10
318.011
 20
226.357
 40
2.5
 50
187.13
 51
270
  0
ARC
  8
1
  6
CONTINUOUS
  62
3
 10
401.304
 20
342.357
 40
4.5
 50
303.75
 51
321.81
  0
ARC
  8
1
  6
CONTINUOUS
  62
3
 10
401.304
 20
342.357
 40
4.5
 50
58.19
 51
236.25
  0
ARC
  8
1
  6
CONTINUOUS
  62
3
 10
401.304
 20
311.357
 40
3.75
 50
327.77
 51
354.65
  0
ARC
  8
1
  6
CONTINUOUS
  62
3
 10
401.304
 20
311.357
 40
3.75
 50
185.36
 51
212.24
  0
ARC
  8
1
  6
CONTINUOUS
  62
3
 10
412.838
 20
320.613
 40
20.925
 50
82.14
 51
112.65
  0
ARC
  8
1
  6
CONTINUOUS
  62
3
 10
404.706
 20
366.735
 40
20.925
 50
267.35
 51
297.86
  0
ARC
  8
1
  6
CONTINUOUS
  62
3
 10
426.712
 20
346.837
 40
3.7
 50
298.92
 51
441.07
  0
ARC
  8
1
  6
CONTINUOUS
  62
3
 10
401.304
 20
321.857
 40
12.5
 50
240.23
 51
247.5
  0
ARC
  8
1
  6
CONTINUOUS
  62
3
 10
401.304
 20
321.857
 40
12.5
 50
60.23
 51
67.5
  0
ARC
  8
1
  6
CONTINUOUS
  62
3
 10
401.304
 20
321.857
 40
12.5
 50
112.5
 51
119.77
  0
ARC
  8
1
  6
CONTINUOUS
  62
3
 10
401.304
 20
299.154
 40
4.295
 50
207.83
 51
332.16
  0
ARC
  8
1
  6
CONTINUOUS
  62
3
 10
412.794
 20
310.367
 40
5.75
 50
173.6
 51
366.39
  0
ARC
  8
1
  6
CONTINUOUS
  62
3
 10
412.794
 20
310.367
 40
4
 50
170.79
 51
369.22
  0
ARC
  8
1
  6
CONTINUOUS
  62
3
 10
401.304
 20
321.857
 40
20
 50
212.85
 51
247.5
  0
ARC
  8
1
  6
CONTINUOUS
  62
3
 10
401.304
 20
321.857
 40
20
 50
32.85
 51
67.5
  0
ARC
  8
1
  6
CONTINUOUS
  62
3
 10
401.304
 20
321.857
 40
20
 50
112.5
 51
147.15
  0
ARC
  8
1
  6
CONTINUOUS
  62
3
 10
401.304
 20
321.857
 40
25
 50
205.07
 51
334.28
  0
ARC
  8
1
  6
CONTINUOUS
  62
3
 10
401.304
 20
321.857
 40
25
 50
75.18
 51
154.93
  0
ARC
  8
1
  6
CONTINUOUS
  62
3
 10
401.304
 20
321.857
 40
25
 50
25.72
 51
51.88
  0
ARC
  8
1
  6
CONTINUOUS
  62
3
 10
341.416
 20
331.357
 40
4
 50
90
 51
172.62
  0
ARC
  8
1
  6
CONTINUOUS
  62
3
 10
414.804
 20
321.857
 40
78
 50
172.62
 51
187.37
  0
ARC
  8
1
  6
CONTINUOUS
  62
3
 10
341.416
 20
312.357
 40
4
 50
187.38
 51
270
  0
ARC
  8
1
  6
CONTINUOUS
  62
3
 10
341.416
 20
327.857
 40
4
 50
228.69
 51
270
  0
ARC
  8
1
  6
CONTINUOUS
  62
3
 10
341.416
 20
315.857
 40
4
 50
90
 51
131.31
  0
ARC
  8
1
  6
CONTINUOUS
  62
3
 10
337.804
 20
331.857
 40
3
 50
65.39
 51
256.94
  0
ARC
  8
1
  6
CONTINUOUS
  62
3
 10
721.304
 20
321.857
 40
25
 50
25.72
 51
51.88
  0
ARC
  8
1
  6
CONTINUOUS
  62
3
 10
721.304
 20
321.857
 40
25
 50
75.18
 51
154.28
  0
ARC
  8
1
  6
CONTINUOUS
  62
3
 10
721.304
 20
321.857
 40
25
 50
205.72
 51
334.28
  0
ARC
  8
1
  6
CONTINUOUS
  62
3
 10
721.304
 20
321.857
 40
20
 50
112.5
 51
147.15
  0
ARC
  8
1
  6
CONTINUOUS
  62
3
 10
721.304
 20
321.857
 40
20
 50
32.85
 51
67.5
  0
ARC
  8
1
  6
CONTINUOUS
  62
3
 10
721.304
 20
321.857
 40
20
 50
212.85
 51
247.5
  0
ARC
  8
1
  6
CONTINUOUS
  62
3
 10
732.794
 20
310.367
 40
4
 50
170.79
 51
369.22
  0
ARC
  8
1
  6
CONTINUOUS
  62
3
 10
732.794
 20
310.367
 40
5.75
 50
173.6
 51
366.39
  0
ARC
  8
1
  6
CONTINUOUS
  62
3
 10
721.304
 20
299.154
 40
4.295
 50
207.83
 51
332.16
  0
ARC
  8
1
  6
CONTINUOUS
  62
3
 10
721.304
 20
321.857
 40
12.5
 50
112.5
 51
119.77
  0
ARC
  8
1
  6
CONTINUOUS
  62
3
 10
721.304
 20
321.857
 40
12.5
 50
60.23
 51
67.5
  0
ARC
  8
1
  6
CONTINUOUS
  62
3
 10
721.304
 20
321.857
 40
12.5
 50
240.23
 51
247.5
  0
ARC
  8
1
  6
CONTINUOUS
  62
3
 10
724.706
 20
366.735
 40
20.925
 50
267.35
 51
297.86
  0
ARC
  8
1
  6
CONTINUOUS
  62
3
 10
732.838
 20
320.613
 40
20.925
 50
82.14
 51
112.65
  0
ARC
  8
1
  6
CONTINUOUS
  62
3
 10
721.304
 20
311.357
 40
3.75
 50
185.36
 51
212.24
  0
ARC
  8
1
  6
CONTINUOUS
  62
3
 10
721.304
 20
311.357
 40
3.75
 50
327.77
 51
354.65
  0
ARC
  8
1
  6
CONTINUOUS
  62
3
 10
721.304
 20
342.357
 40
4.5
 50
58.19
 51
236.25
  0
ARC
  8
1
  6
CONTINUOUS
  62
3
 10
721.304
 20
342.357
 40
4.5
 50
303.75
 51
321.81
  0
ARC
  8
1
  6
CONTINUOUS
  62
3
 10
713.804
 20
344.857
 40
3
 50
30.29
 51
185.83
  0
ARC
  8
1
  6
CONTINUOUS
  62
3
 10
746.711
 20
346.838
 40
3.7
 50
298.92
 51
441.07
  0
ARC
  8
1
  6
CONTINUOUS
  62
3
 10
934.924
 20
321.857
 40
9.12
 50
146.67
 51
213.33
  0
ARC
  8
1
  6
CONTINUOUS
  62
3
 10
930.739
 20
331.403
 40
4.935
 50
134.11
 51
225.89
  0
ARC
  8
1
  6
CONTINUOUS
  62
3
 10
930.739
 20
312.311
 40
4.935
 50
134.11
 51
225.89
  0
ARC
  8
1
  6
CONTINUOUS
  62
3
 10
881.304
 20
342.357
 40
4.5
 50
303.75
 51
321.81
  0
ARC
  8
1
  6
CONTINUOUS
  62
3
 10
881.304
 20
342.357
 40
4.5
 50
58.19
 51
236.25
  0
ARC
  8
1
  6
CONTINUOUS
  62
3
 10
881.304
 20
311.357
 40
3.75
 50
327.77
 51
354.65
  0
ARC
  8
1
  6
CONTINUOUS
  62
3
 10
881.304
 20
311.357
 40
3.75
 50
185.36
 51
212.24
  0
ARC
  8
1
  6
CONTINUOUS
  62
3
 10
892.838
 20
320.613
 40
20.925
 50
82.14
 51
112.65
  0
ARC
  8
1
  6
CONTINUOUS
  62
3
 10
884.706
 20
366.735
 40
20.925
 50
267.35
 51
297.86
  0
ARC
  8
1
  6
CONTINUOUS
  62
3
 10
881.304
 20
321.857
 40
12.5
 50
240.23
 51
247.5
  0
ARC
  8
1
  6
CONTINUOUS
  62
3
 10
881.304
 20
321.857
 40
12.5
 50
60.23
 51
67.5
  0
ARC
  8
1
  6
CONTINUOUS
  62
3
 10
881.304
 20
321.857
 40
12.5
 50
112.5
 51
119.77
  0
ARC
  8
1
  6
CONTINUOUS
  62
3
 10
881.304
 20
299.154
 40
4.295
 50
207.83
 51
332.16
  0
ARC
  8
1
  6
CONTINUOUS
  62
3
 10
892.794
 20
310.367
 40
5.75
 50
173.6
 51
366.39
  0
ARC
  8
1
  6
CONTINUOUS
  62
3
 10
892.794
 20
310.367
 40
4
 50
170.79
 51
369.22
  0
ARC
  8
1
  6
CONTINUOUS
  62
3
 10
881.304
 20
321.857
 40
20
 50
212.85
 51
247.5
  0
ARC
  8
1
  6
CONTINUOUS
  62
3
 10
881.304
 20
321.857
 40
20
 50
32.85
 51
67.5
  0
ARC
  8
1
  6
CONTINUOUS
  62
3
 10
881.304
 20
321.857
 40
20
 50
112.5
 51
147.15
  0
ARC
  8
1
  6
CONTINUOUS
  62
3
 10
881.304
 20
321.857
 40
25
 50
205.72
 51
334.93
  0
ARC
  8
1
  6
CONTINUOUS
  62
3
 10
881.304
 20
321.857
 40
25
 50
75.18
 51
154.28
  0
ARC
  8
1
  6
CONTINUOUS
  62
3
 10
881.304
 20
321.857
 40
25
 50
25.07
 51
51.88
  0
ARC
  8
1
  6
CONTINUOUS
  62
3
 10
906.712
 20
346.837
 40
3.7
 50
298.92
 51
441.07
  0
ARC
  8
1
  6
CONTINUOUS
  62
3
 10
568.804
 20
344.857
 40
3
 50
40.51
 51
149.7
  0
ARC
  8
1
  6
CONTINUOUS
  62
3
 10
561.304
 20
342.357
 40
4.5
 50
303.75
 51
321.81
  0
ARC
  8
1
  6
CONTINUOUS
  62
3
 10
561.304
 20
342.357
 40
4.5
 50
58.19
 51
236.25
  0
ARC
  8
1
  6
CONTINUOUS
  62
3
 10
561.304
 20
311.357
 40
3.75
 50
327.77
 51
354.65
  0
ARC
  8
1
  6
CONTINUOUS
  62
3
 10
561.304
 20
311.357
 40
3.75
 50
185.36
 51
212.24
  0
ARC
  8
1
  6
CONTINUOUS
  62
3
 10
572.838
 20
320.613
 40
20.925
 50
82.14
 51
112.65
  0
ARC
  8
1
  6
CONTINUOUS
  62
3
 10
564.706
 20
366.735
 40
20.925
 50
267.35
 51
297.86
  0
ARC
  8
1
  6
CONTINUOUS
  62
3
 10
561.304
 20
321.857
 40
12.5
 50
240.23
 51
247.5
  0
ARC
  8
1
  6
CONTINUOUS
  62
3
 10
561.304
 20
321.857
 40
12.5
 50
60.23
 51
67.5
  0
ARC
  8
1
  6
CONTINUOUS
  62
3
 10
561.304
 20
321.857
 40
12.5
 50
112.5
 51
119.77
  0
ARC
  8
1
  6
CONTINUOUS
  62
3
 10
561.304
 20
299.154
 40
4.295
 50
207.83
 51
332.16
  0
ARC
  8
1
  6
CONTINUOUS
  62
3
 10
572.794
 20
310.367
 40
5.75
 50
173.6
 51
366.39
  0
ARC
  8
1
  6
CONTINUOUS
  62
3
 10
572.794
 20
310.367
 40
4
 50
170.79
 51
369.22
  0
ARC
  8
1
  6
CONTINUOUS
  62
3
 10
561.304
 20
321.857
 40
20
 50
212.85
 51
247.5
  0
ARC
  8
1
  6
CONTINUOUS
  62
3
 10
561.304
 20
321.857
 40
20
 50
32.85
 51
67.5
  0
ARC
  8
1
  6
CONTINUOUS
  62
3
 10
561.304
 20
321.857
 40
20
 50
112.5
 51
147.15
  0
ARC
  8
1
  6
CONTINUOUS
  62
3
 10
561.304
 20
321.857
 40
25
 50
205.72
 51
334.28
  0
ARC
  8
1
  6
CONTINUOUS
  62
3
 10
561.304
 20
321.857
 40
25
 50
75.18
 51
154.28
  0
ARC
  8
1
  6
CONTINUOUS
  62
3
 10
561.304
 20
321.857
 40
25
 50
25.72
 51
51.88
  0
ARC
  8
1
  6
CONTINUOUS
  62
3
 10
586.712
 20
346.837
 40
3.7
 50
298.92
 51
441.07
  0
ARC
  8
1
  6
CONTINUOUS
  62
3
 10
934.026
 20
312.311
 40
6.775
 50
328.48
 51
391.52
  0
ARC
  8
1
  6
CONTINUOUS
  62
3
 10
934.026
 20
331.403
 40
6.775
 50
328.48
 51
391.52
  0
ARC
  8
1
  6
CONTINUOUS
  62
3
 10
927.749
 20
321.857
 40
13.055
 50
337.43
 51
382.57
  0
ARC
  8
1
  6
CONTINUOUS
  62
3
 10
954.804
 20
303.357
 40
5
 50
323.13
 51
396.87
  0
ARC
  8
1
  6
CONTINUOUS
  62
3
 10
953.804
 20
303.357
 40
5
 50
143.13
 51
216.87
  0
ARC
  8
1
  6
CONTINUOUS
  62
3
 10
953.804
 20
297.357
 40
5
 50
143.13
 51
216.87
  0
ARC
  8
1
  6
CONTINUOUS
  62
3
 10
954.804
 20
297.357
 40
5
 50
323.13
 51
396.87
  0
ARC
  8
1
  6
CONTINUOUS
  62
3
 10
954.304
 20
321.857
 40
6.5
 50
270
 51
450
  0
CIRCLE
  8
1
  6
CONTINUOUS
  62
7
 10
664.054
 20
411.857
 40
10
  0
CIRCLE
  8
1
  6
CONTINUOUS
  62
7
 10
664.054
 20
411.857
 40
11.504
  0
CIRCLE
  8
1
  6
CONTINUOUS
  62
7
 10
918.554
 20
411.857
 40
10
  0
CIRCLE
  8
1
  6
CONTINUOUS
  62
7
 10
918.554
 20
411.857
 40
11.504
  0
CIRCLE
  8
1
  6
CONTINUOUS
  62
7
 10
598.554
 20
411.857
 40
11.504
  0
CIRCLE
  8
1
  6
CONTINUOUS
  62
7
 10
598.554
 20
411.857
 40
10
  0
CIRCLE
  8
1
  6
CONTINUOUS
  62
7
 10
344.054
 20
411.857
 40
11.504
  0
CIRCLE
  8
1
  6
CONTINUOUS
  62
7
 10
344.054
 20
411.857
 40
10
  0
ARC
  8
1
  6
CONTINUOUS
  62
7
 10
915.749
 20
601.207
 40
13.055
 50
337.43
 51
382.57
  0
ARC
  8
1
  6
CONTINUOUS
  62
7
 10
922.026
 20
610.753
 40
6.775
 50
328.48
 51
391.52
  0
ARC
  8
1
  6
CONTINUOUS
  62
7
 10
922.026
 20
591.661
 40
6.775
 50
328.48
 51
391.52
  0
ARC
  8
1
  6
CONTINUOUS
  62
7
 10
918.739
 20
591.661
 40
4.935
 50
134.11
 51
225.89
  0
ARC
  8
1
  6
CONTINUOUS
  62
7
 10
918.739
 20
610.753
 40
4.935
 50
134.11
 51
225.89
  0
ARC
  8
1
  6
CONTINUOUS
  62
7
 10
922.924
 20
601.207
 40
9.12
 50
146.67
 51
213.33
  0
ARC
  8
1
  6
CONTINUOUS
  62
7
 10
481.304
 20
286.857
 40
2
 50
0
 51
180
  0
ARC
  8
1
  6
CONTINUOUS
  62
7
 10
481.304
 20
260.857
 40
2
 50
180
 51
360
  0
ARC
  8
1
  6
CONTINUOUS
  62
7
 10
466.304
 20
260.857
 40
2
 50
180
 51
360
  0
ARC
  8
1
  6
CONTINUOUS
  62
7
 10
451.304
 20
260.857
 40
2
 50
180
 51
360
  0
ARC
  8
1
  6
CONTINUOUS
  62
7
 10
436.304
 20
260.857
 40
2
 50
180
 51
360
  0
ARC
  8
1
  6
CONTINUOUS
  62
7
 10
421.304
 20
260.857
 40
2
 50
180
 51
360
  0
ARC
  8
1
  6
CONTINUOUS
  62
7
 10
406.304
 20
260.857
 40
2
 50
180
 51
360
  0
ARC
  8
1
  6
CONTINUOUS
  62
7
 10
391.304
 20
260.857
 40
2
 50
180
 51
360
  0
ARC
  8
1
  6
CONTINUOUS
  62
7
 10
376.304
 20
260.857
 40
2
 50
180
 51
360
  0
ARC
  8
1
  6
CONTINUOUS
  62
7
 10
466.304
 20
286.857
 40
2
 50
0
 51
180
  0
ARC
  8
1
  6
CONTINUOUS
  62
7
 10
451.304
 20
286.857
 40
2
 50
0
 51
180
  0
ARC
  8
1
  6
CONTINUOUS
  62
7
 10
436.304
 20
286.857
 40
2
 50
0
 51
180
  0
ARC
  8
1
  6
CONTINUOUS
  62
7
 10
421.304
 20
286.857
 40
2
 50
0
 51
180
  0
ARC
  8
1
  6
CONTINUOUS
  62
7
 10
406.304
 20
286.857
 40
2
 50
0
 51
180
  0
ARC
  8
1
  6
CONTINUOUS
  62
7
 10
391.304
 20
286.857
 40
2
 50
0
 51
180
  0
ARC
  8
1
  6
CONTINUOUS
  62
7
 10
376.304
 20
286.857
 40
2
 50
0
 51
180
  0
ARC
  8
1
  6
CONTINUOUS
  62
7
 10
586.304
 20
286.857
 40
2
 50
0
 51
180
  0
ARC
  8
1
  6
CONTINUOUS
  62
7
 10
571.304
 20
286.857
 40
2
 50
0
 51
180
  0
ARC
  8
1
  6
CONTINUOUS
  62
7
 10
556.304
 20
286.857
 40
2
 50
0
 51
180
  0
ARC
  8
1
  6
CONTINUOUS
  62
7
 10
541.304
 20
286.857
 40
2
 50
0
 51
180
  0
ARC
  8
1
  6
CONTINUOUS
  62
7
 10
526.304
 20
286.857
 40
2
 50
0
 51
180
  0
ARC
  8
1
  6
CONTINUOUS
  62
7
 10
511.304
 20
286.857
 40
2
 50
0
 51
180
  0
ARC
  8
1
  6
CONTINUOUS
  62
7
 10
496.304
 20
286.857
 40
2
 50
0
 51
180
  0
ARC
  8
1
  6
CONTINUOUS
  62
7
 10
586.304
 20
260.857
 40
2
 50
180
 51
360
  0
ARC
  8
1
  6
CONTINUOUS
  62
7
 10
571.304
 20
260.857
 40
2
 50
180
 51
360
  0
ARC
  8
1
  6
CONTINUOUS
  62
7
 10
556.304
 20
260.857
 40
2
 50
180
 51
360
  0
ARC
  8
1
  6
CONTINUOUS
  62
7
 10
541.304
 20
260.857
 40
2
 50
180
 51
360
  0
ARC
  8
1
  6
CONTINUOUS
  62
7
 10
526.304
 20
260.857
 40
2
 50
180
 51
360
  0
ARC
  8
1
  6
CONTINUOUS
  62
7
 10
511.304
 20
260.857
 40
2
 50
180
 51
360
  0
ARC
  8
1
  6
CONTINUOUS
  62
7
 10
496.304
 20
260.857
 40
2
 50
180
 51
360
  0
ARC
  8
1
  6
CONTINUOUS
  62
7
 10
783.304
 20
260.857
 40
2
 50
180
 51
360
  0
ARC
  8
1
  6
CONTINUOUS
  62
7
 10
768.304
 20
260.857
 40
2
 50
180
 51
360
  0
ARC
  8
1
  6
CONTINUOUS
  62
7
 10
753.304
 20
260.857
 40
2
 50
180
 51
360
  0
ARC
  8
1
  6
CONTINUOUS
  62
7
 10
738.304
 20
260.857
 40
2
 50
180
 51
360
  0
ARC
  8
1
  6
CONTINUOUS
  62
7
 10
723.304
 20
260.857
 40
2
 50
180
 51
360
  0
ARC
  8
1
  6
CONTINUOUS
  62
7
 10
708.304
 20
260.857
 40
2
 50
180
 51
360
  0
ARC
  8
1
  6
CONTINUOUS
  62
7
 10
693.304
 20
260.857
 40
2
 50
180
 51
360
  0
ARC
  8
1
  6
CONTINUOUS
  62
7
 10
783.304
 20
286.857
 40
2
 50
0
 51
180
  0
ARC
  8
1
  6
CONTINUOUS
  62
7
 10
768.304
 20
286.857
 40
2
 50
0
 51
180
  0
ARC
  8
1
  6
CONTINUOUS
  62
7
 10
753.304
 20
286.857
 40
2
 50
0
 51
180
  0
ARC
  8
1
  6
CONTINUOUS
  62
7
 10
738.304
 20
286.857
 40
2
 50
0
 51
180
  0
ARC
  8
1
  6
CONTINUOUS
  62
7
 10
723.304
 20
286.857
 40
2
 50
0
 51
180
  0
ARC
  8
1
  6
CONTINUOUS
  62
7
 10
708.304
 20
286.857
 40
2
 50
0
 51
180
  0
ARC
  8
1
  6
CONTINUOUS
  62
7
 10
693.304
 20
286.857
 40
2
 50
0
 51
180
  0
ARC
  8
1
  6
CONTINUOUS
  62
7
 10
903.304
 20
286.857
 40
2
 50
0
 51
180
  0
ARC
  8
1
  6
CONTINUOUS
  62
7
 10
888.304
 20
286.857
 40
2
 50
0
 51
180
  0
ARC
  8
1
  6
CONTINUOUS
  62
7
 10
873.304
 20
286.857
 40
2
 50
0
 51
180
  0
ARC
  8
1
  6
CONTINUOUS
  62
7
 10
858.304
 20
286.857
 40
2
 50
0
 51
180
  0
ARC
  8
1
  6
CONTINUOUS
  62
7
 10
843.304
 20
286.857
 40
2
 50
0
 51
180
  0
ARC
  8
1
  6
CONTINUOUS
  62
7
 10
828.304
 20
286.857
 40
2
 50
0
 51
180
  0
ARC
  8
1
  6
CONTINUOUS
  62
7
 10
813.304
 20
286.857
 40
2
 50
0
 51
180
  0
ARC
  8
1
  6
CONTINUOUS
  62
7
 10
903.304
 20
260.857
 40
2
 50
180
 51
360
  0
ARC
  8
1
  6
CONTINUOUS
  62
7
 10
888.304
 20
260.857
 40
2
 50
180
 51
360
  0
ARC
  8
1
  6
CONTINUOUS
  62
7
 10
873.304
 20
260.857
 40
2
 50
180
 51
360
  0
ARC
  8
1
  6
CONTINUOUS
  62
7
 10
858.304
 20
260.857
 40
2
 50
180
 51
360
  0
ARC
  8
1
  6
CONTINUOUS
  62
7
 10
843.304
 20
260.857
 40
2
 50
180
 51
360
  0
ARC
  8
1
  6
CONTINUOUS
  62
7
 10
828.304
 20
260.857
 40
2
 50
180
 51
360
  0
ARC
  8
1
  6
CONTINUOUS
  62
7
 10
813.304
 20
260.857
 40
2
 50
180
 51
360
  0
ARC
  8
1
  6
CONTINUOUS
  62
7
 10
798.304
 20
260.857
 40
2
 50
180
 51
360
  0
ARC
  8
1
  6
CONTINUOUS
  62
7
 10
798.304
 20
286.857
 40
2
 50
0
 51
180
  0
CIRCLE
  8
1
  6
CONTINUOUS
  62
7
 10
481.304
 20
361.857
 40
15
  0
CIRCLE
  8
1
  6
CONTINUOUS
  62
7
 10
639.804
 20
361.857
 40
15
  0
CIRCLE
  8
1
  6
CONTINUOUS
  62
7
 10
798.304
 20
361.857
 40
15
  0
CIRCLE
  8
1
  6
CONTINUOUS
  62
3
 10
371.304
 20
730.357
 40
1.2
  0
CIRCLE
  8
1
  6
CONTINUOUS
  62
3
 10
371.304
 20
738.357
 40
1.2
  0
CIRCLE
  8
1
  6
CONTINUOUS
  62
3
 10
371.304
 20
746.357
 40
1.2
  0
CIRCLE
  8
1
  6
CONTINUOUS
  62
3
 10
371.304
 20
754.357
 40
1.2
  0
CIRCLE
  8
1
  6
CONTINUOUS
  62
3
 10
371.304
 20
762.357
 40
1.2
  0
CIRCLE
  8
1
  6
CONTINUOUS
  62
3
 10
371.304
 20
770.357
 40
1.2
  0
CIRCLE
  8
1
  6
CONTINUOUS
  62
3
 10
371.304
 20
778.357
 40
1.2
  0
CIRCLE
  8
1
  6
CONTINUOUS
  62
3
 10
371.304
 20
786.357
 40
1.2
  0
CIRCLE
  8
1
  6
CONTINUOUS
  62
3
 10
371.304
 20
794.357
 40
1.2
  0
CIRCLE
  8
1
  6
CONTINUOUS
  62
3
 10
371.304
 20
802.357
 40
1.2
  0
CIRCLE
  8
1
  6
CONTINUOUS
  62
3
 10
371.304
 20
810.357
 40
1.2
  0
CIRCLE
  8
1
  6
CONTINUOUS
  62
3
 10
371.304
 20
818.357
 40
1.2
  0
CIRCLE
  8
1
  6
CONTINUOUS
  62
3
 10
371.304
 20
826.357
 40
1.2
  0
CIRCLE
  8
1
  6
CONTINUOUS
  62
3
 10
371.304
 20
834.357
 40
1.2
  0
CIRCLE
  8
1
  6
CONTINUOUS
  62
3
 10
371.304
 20
842.357
 40
1.2
  0
CIRCLE
  8
1
  6
CONTINUOUS
  62
3
 10
371.304
 20
850.357
 40
1.2
  0
CIRCLE
  8
1
  6
CONTINUOUS
  62
3
 10
371.304
 20
858.357
 40
1.2
  0
CIRCLE
  8
1
  6
CONTINUOUS
  62
3
 10
371.304
 20
866.357
 40
1.2
  0
CIRCLE
  8
1
  6
CONTINUOUS
  62
3
 10
371.304
 20
874.357
 40
1.2
  0
CIRCLE
  8
1
  6
CONTINUOUS
  62
3
 10
371.304
 20
882.357
 40
1.2
  0
CIRCLE
  8
1
  6
CONTINUOUS
  62
3
 10
371.304
 20
890.357
 40
1.2
  0
CIRCLE
  8
1
  6
CONTINUOUS
  62
3
 10
371.304
 20
898.357
 40
1.2
  0
CIRCLE
  8
1
  6
CONTINUOUS
  62
3
 10
371.304
 20
906.357
 40
1.2
  0
CIRCLE
  8
1
  6
CONTINUOUS
  62
3
 10
371.304
 20
914.357
 40
1.2
  0
CIRCLE
  8
1
  6
CONTINUOUS
  62
3
 10
371.304
 20
922.357
 40
1.2
  0
CIRCLE
  8
1
  6
CONTINUOUS
  62
3
 10
371.304
 20
930.357
 40
1.2
  0
CIRCLE
  8
1
  6
CONTINUOUS
  62
3
 10
371.304
 20
938.357
 40
1.2
  0
CIRCLE
  8
1
  6
CONTINUOUS
  62
3
 10
371.304
 20
946.357
 40
1.2
  0
CIRCLE
  8
1
  6
CONTINUOUS
  62
3
 10
371.304
 20
954.357
 40
1.2
  0
CIRCLE
  8
1
  6
CONTINUOUS
  62
3
 10
371.304
 20
962.357
 40
1.2
  0
CIRCLE
  8
1
  6
CONTINUOUS
  62
3
 10
371.304
 20
970.357
 40
1.2
  0
CIRCLE
  8
1
  6
CONTINUOUS
  62
3
 10
371.304
 20
978.357
 40
1.2
  0
CIRCLE
  8
1
  6
CONTINUOUS
  62
3
 10
371.304
 20
986.357
 40
1.2
  0
CIRCLE
  8
1
  6
CONTINUOUS
  62
3
 10
371.304
 20
994.357
 40
1.2
  0
CIRCLE
  8
1
  6
CONTINUOUS
  62
3
 10
371.304
 20
1002.36
 40
1.2
  0
CIRCLE
  8
1
  6
CONTINUOUS
  62
3
 10
371.304
 20
1010.36
 40
1.2
  0
CIRCLE
  8
1
  6
CONTINUOUS
  62
3
 10
371.304
 20
1018.36
 40
1.2
  0
CIRCLE
  8
1
  6
CONTINUOUS
  62
3
 10
371.304
 20
1026.36
 40
1.2
  0
CIRCLE
  8
1
  6
CONTINUOUS
  62
3
 10
371.304
 20
1034.36
 40
1.2
  0
CIRCLE
  8
1
  6
CONTINUOUS
  62
3
 10
371.304
 20
1042.36
 40
1.2
  0
CIRCLE
  8
1
  6
CONTINUOUS
  62
3
 10
371.304
 20
1050.36
 40
1.2
  0
CIRCLE
  8
1
  6
CONTINUOUS
  62
3
 10
371.304
 20
1058.36
 40
1.2
  0
CIRCLE
  8
1
  6
CONTINUOUS
  62
3
 10
371.304
 20
1066.36
 40
1.2
  0
CIRCLE
  8
1
  6
CONTINUOUS
  62
3
 10
371.304
 20
1074.36
 40
1.2
  0
CIRCLE
  8
1
  6
CONTINUOUS
  62
3
 10
371.304
 20
1082.36
 40
1.2
  0
CIRCLE
  8
1
  6
CONTINUOUS
  62
3
 10
371.304
 20
1090.36
 40
1.2
  0
CIRCLE
  8
1
  6
CONTINUOUS
  62
3
 10
371.304
 20
1098.36
 40
1.2
  0
CIRCLE
  8
1
  6
CONTINUOUS
  62
3
 10
371.304
 20
1106.36
 40
1.2
  0
CIRCLE
  8
1
  6
CONTINUOUS
  62
3
 10
371.304
 20
1114.36
 40
1.2
  0
CIRCLE
  8
1
  6
CONTINUOUS
  62
3
 10
371.304
 20
1122.36
 40
1.2
  0
CIRCLE
  8
1
  6
CONTINUOUS
  62
3
 10
371.304
 20
1130.36
 40
1.2
  0
CIRCLE
  8
1
  6
CONTINUOUS
  62
3
 10
371.304
 20
1138.36
 40
1.2
  0
CIRCLE
  8
1
  6
CONTINUOUS
  62
3
 10
371.304
 20
1146.36
 40
1.2
  0
CIRCLE
  8
1
  6
CONTINUOUS
  62
3
 10
371.304
 20
1154.36
 40
1.2
  0
CIRCLE
  8
1
  6
CONTINUOUS
  62
3
 10
371.304
 20
1162.36
 40
1.2
  0
CIRCLE
  8
1
  6
CONTINUOUS
  62
3
 10
371.304
 20
1170.36
 40
1.2
  0
CIRCLE
  8
1
  6
CONTINUOUS
  62
3
 10
371.304
 20
1178.36
 40
1.2
  0
CIRCLE
  8
1
  6
CONTINUOUS
  62
3
 10
371.304
 20
1186.36
 40
1.2
  0
CIRCLE
  8
1
  6
CONTINUOUS
  62
3
 10
371.304
 20
1194.36
 40
1.2
  0
CIRCLE
  8
1
  6
CONTINUOUS
  62
3
 10
371.304
 20
1202.36
 40
1.2
  0
CIRCLE
  8
1
  6
CONTINUOUS
  62
3
 10
371.304
 20
1210.36
 40
1.2
  0
CIRCLE
  8
1
  6
CONTINUOUS
  62
3
 10
431.304
 20
1210.36
 40
1.2
  0
CIRCLE
  8
1
  6
CONTINUOUS
  62
3
 10
431.304
 20
1202.36
 40
1.2
  0
CIRCLE
  8
1
  6
CONTINUOUS
  62
3
 10
431.304
 20
1194.36
 40
1.2
  0
CIRCLE
  8
1
  6
CONTINUOUS
  62
3
 10
431.304
 20
1186.36
 40
1.2
  0
CIRCLE
  8
1
  6
CONTINUOUS
  62
3
 10
431.304
 20
1178.36
 40
1.2
  0
CIRCLE
  8
1
  6
CONTINUOUS
  62
3
 10
431.304
 20
1170.36
 40
1.2
  0
CIRCLE
  8
1
  6
CONTINUOUS
  62
3
 10
431.304
 20
1162.36
 40
1.2
  0
CIRCLE
  8
1
  6
CONTINUOUS
  62
3
 10
431.304
 20
1154.36
 40
1.2
  0
CIRCLE
  8
1
  6
CONTINUOUS
  62
3
 10
431.304
 20
1146.36
 40
1.2
  0
CIRCLE
  8
1
  6
CONTINUOUS
  62
3
 10
431.304
 20
1138.36
 40
1.2
  0
CIRCLE
  8
1
  6
CONTINUOUS
  62
3
 10
431.304
 20
1130.36
 40
1.2
  0
CIRCLE
  8
1
  6
CONTINUOUS
  62
3
 10
431.304
 20
1122.36
 40
1.2
  0
CIRCLE
  8
1
  6
CONTINUOUS
  62
3
 10
431.304
 20
1114.36
 40
1.2
  0
CIRCLE
  8
1
  6
CONTINUOUS
  62
3
 10
431.304
 20
1106.36
 40
1.2
  0
CIRCLE
  8
1
  6
CONTINUOUS
  62
3
 10
431.304
 20
1098.36
 40
1.2
  0
CIRCLE
  8
1
  6
CONTINUOUS
  62
3
 10
431.304
 20
1090.36
 40
1.2
  0
CIRCLE
  8
1
  6
CONTINUOUS
  62
3
 10
431.304
 20
1082.36
 40
1.2
  0
CIRCLE
  8
1
  6
CONTINUOUS
  62
3
 10
431.304
 20
1074.36
 40
1.2
  0
CIRCLE
  8
1
  6
CONTINUOUS
  62
3
 10
431.304
 20
1066.36
 40
1.2
  0
CIRCLE
  8
1
  6
CONTINUOUS
  62
3
 10
431.304
 20
1058.36
 40
1.2
  0
CIRCLE
  8
1
  6
CONTINUOUS
  62
3
 10
431.304
 20
1050.36
 40
1.2
  0
CIRCLE
  8
1
  6
CONTINUOUS
  62
3
 10
431.304
 20
1042.36
 40
1.2
  0
CIRCLE
  8
1
  6
CONTINUOUS
  62
3
 10
431.304
 20
1034.36
 40
1.2
  0
CIRCLE
  8
1
  6
CONTINUOUS
  62
3
 10
431.304
 20
1026.36
 40
1.2
  0
CIRCLE
  8
1
  6
CONTINUOUS
  62
3
 10
431.304
 20
1018.36
 40
1.2
  0
CIRCLE
  8
1
  6
CONTINUOUS
  62
3
 10
431.304
 20
1010.36
 40
1.2
  0
CIRCLE
  8
1
  6
CONTINUOUS
  62
3
 10
431.304
 20
1002.36
 40
1.2
  0
CIRCLE
  8
1
  6
CONTINUOUS
  62
3
 10
431.304
 20
994.357
 40
1.2
  0
CIRCLE
  8
1
  6
CONTINUOUS
  62
3
 10
431.304
 20
986.357
 40
1.2
  0
CIRCLE
  8
1
  6
CONTINUOUS
  62
3
 10
431.304
 20
978.357
 40
1.2
  0
CIRCLE
  8
1
  6
CONTINUOUS
  62
3
 10
431.304
 20
970.357
 40
1.2
  0
CIRCLE
  8
1
  6
CONTINUOUS
  62
3
 10
431.304
 20
962.357
 40
1.2
  0
CIRCLE
  8
1
  6
CONTINUOUS
  62
3
 10
431.304
 20
954.357
 40
1.2
  0
CIRCLE
  8
1
  6
CONTINUOUS
  62
3
 10
431.304
 20
946.357
 40
1.2
  0
CIRCLE
  8
1
  6
CONTINUOUS
  62
3
 10
431.304
 20
938.357
 40
1.2
  0
CIRCLE
  8
1
  6
CONTINUOUS
  62
3
 10
431.304
 20
930.357
 40
1.2
  0
CIRCLE
  8
1
  6
CONTINUOUS
  62
3
 10
431.304
 20
922.357
 40
1.2
  0
CIRCLE
  8
1
  6
CONTINUOUS
  62
3
 10
431.304
 20
914.357
 40
1.2
  0
CIRCLE
  8
1
  6
CONTINUOUS
  62
3
 10
431.304
 20
906.357
 40
1.2
  0
CIRCLE
  8
1
  6
CONTINUOUS
  62
3
 10
431.304
 20
898.357
 40
1.2
  0
CIRCLE
  8
1
  6
CONTINUOUS
  62
3
 10
431.304
 20
890.357
 40
1.2
  0
CIRCLE
  8
1
  6
CONTINUOUS
  62
3
 10
431.304
 20
882.357
 40
1.2
  0
CIRCLE
  8
1
  6
CONTINUOUS
  62
3
 10
431.304
 20
874.357
 40
1.2
  0
CIRCLE
  8
1
  6
CONTINUOUS
  62
3
 10
431.304
 20
866.357
 40
1.2
  0
CIRCLE
  8
1
  6
CONTINUOUS
  62
3
 10
431.304
 20
858.357
 40
1.2
  0
CIRCLE
  8
1
  6
CONTINUOUS
  62
3
 10
431.304
 20
850.357
 40
1.2
  0
CIRCLE
  8
1
  6
CONTINUOUS
  62
3
 10
431.304
 20
842.357
 40
1.2
  0
CIRCLE
  8
1
  6
CONTINUOUS
  62
3
 10
431.304
 20
834.357
 40
1.2
  0
CIRCLE
  8
1
  6
CONTINUOUS
  62
3
 10
431.304
 20
826.357
 40
1.2
  0
CIRCLE
  8
1
  6
CONTINUOUS
  62
3
 10
431.304
 20
818.357
 40
1.2
  0
CIRCLE
  8
1
  6
CONTINUOUS
  62
3
 10
431.304
 20
810.357
 40
1.2
  0
CIRCLE
  8
1
  6
CONTINUOUS
  62
3
 10
431.304
 20
802.357
 40
1.2
  0
CIRCLE
  8
1
  6
CONTINUOUS
  62
3
 10
431.304
 20
794.357
 40
1.2
  0
CIRCLE
  8
1
  6
CONTINUOUS
  62
3
 10
431.304
 20
786.357
 40
1.2
  0
CIRCLE
  8
1
  6
CONTINUOUS
  62
3
 10
431.304
 20
778.357
 40
1.2
  0
CIRCLE
  8
1
  6
CONTINUOUS
  62
3
 10
431.304
 20
770.357
 40
1.2
  0
CIRCLE
  8
1
  6
CONTINUOUS
  62
3
 10
431.304
 20
762.357
 40
1.2
  0
CIRCLE
  8
1
  6
CONTINUOUS
  62
3
 10
431.304
 20
754.357
 40
1.2
  0
CIRCLE
  8
1
  6
CONTINUOUS
  62
3
 10
431.304
 20
746.357
 40
1.2
  0
CIRCLE
  8
1
  6
CONTINUOUS
  62
3
 10
431.304
 20
738.357
 40
1.2
  0
CIRCLE
  8
1
  6
CONTINUOUS
  62
3
 10
431.304
 20
730.357
 40
1.2
  0
CIRCLE
  8
1
  6
CONTINUOUS
  62
3
 10
381.304
 20
1210.36
 40
1.2
  0
CIRCLE
  8
1
  6
CONTINUOUS
  62
3
 10
391.304
 20
1210.36
 40
1.2
  0
CIRCLE
  8
1
  6
CONTINUOUS
  62
3
 10
401.304
 20
1210.36
 40
1.2
  0
CIRCLE
  8
1
  6
CONTINUOUS
  62
3
 10
411.304
 20
1210.36
 40
1.2
  0
CIRCLE
  8
1
  6
CONTINUOUS
  62
3
 10
421.304
 20
1210.36
 40
1.2
  0
CIRCLE
  8
1
  6
CONTINUOUS
  62
3
 10
421.304
 20
730.357
 40
1.2
  0
CIRCLE
  8
1
  6
CONTINUOUS
  62
3
 10
411.304
 20
730.357
 40
1.2
  0
CIRCLE
  8
1
  6
CONTINUOUS
  62
3
 10
401.304
 20
730.357
 40
1.2
  0
CIRCLE
  8
1
  6
CONTINUOUS
  62
3
 10
391.304
 20
730.357
 40
1.2
  0
CIRCLE
  8
1
  6
CONTINUOUS
  62
3
 10
381.304
 20
730.357
 40
1.2
  0
CIRCLE
  8
1
  6
CONTINUOUS
  62
3
 10
541.304
 20
730.357
 40
1.2
  0
CIRCLE
  8
1
  6
CONTINUOUS
  62
3
 10
551.304
 20
730.357
 40
1.2
  0
CIRCLE
  8
1
  6
CONTINUOUS
  62
3
 10
561.304
 20
730.357
 40
1.2
  0
CIRCLE
  8
1
  6
CONTINUOUS
  62
3
 10
571.304
 20
730.357
 40
1.2
  0
CIRCLE
  8
1
  6
CONTINUOUS
  62
3
 10
581.304
 20
730.357
 40
1.2
  0
CIRCLE
  8
1
  6
CONTINUOUS
  62
3
 10
581.304
 20
1210.36
 40
1.2
  0
CIRCLE
  8
1
  6
CONTINUOUS
  62
3
 10
571.304
 20
1210.36
 40
1.2
  0
CIRCLE
  8
1
  6
CONTINUOUS
  62
3
 10
561.304
 20
1210.36
 40
1.2
  0
CIRCLE
  8
1
  6
CONTINUOUS
  62
3
 10
551.304
 20
1210.36
 40
1.2
  0
CIRCLE
  8
1
  6
CONTINUOUS
  62
3
 10
541.304
 20
1210.36
 40
1.2
  0
CIRCLE
  8
1
  6
CONTINUOUS
  62
3
 10
591.304
 20
730.357
 40
1.2
  0
CIRCLE
  8
1
  6
CONTINUOUS
  62
3
 10
591.304
 20
738.357
 40
1.2
  0
CIRCLE
  8
1
  6
CONTINUOUS
  62
3
 10
591.304
 20
746.357
 40
1.2
  0
CIRCLE
  8
1
  6
CONTINUOUS
  62
3
 10
591.304
 20
754.357
 40
1.2
  0
CIRCLE
  8
1
  6
CONTINUOUS
  62
3
 10
591.304
 20
762.357
 40
1.2
  0
CIRCLE
  8
1
  6
CONTINUOUS
  62
3
 10
591.304
 20
770.357
 40
1.2
  0
CIRCLE
  8
1
  6
CONTINUOUS
  62
3
 10
591.304
 20
778.357
 40
1.2
  0
CIRCLE
  8
1
  6
CONTINUOUS
  62
3
 10
591.304
 20
786.357
 40
1.2
  0
CIRCLE
  8
1
  6
CONTINUOUS
  62
3
 10
591.304
 20
794.357
 40
1.2
  0
CIRCLE
  8
1
  6
CONTINUOUS
  62
3
 10
591.304
 20
802.357
 40
1.2
  0
CIRCLE
  8
1
  6
CONTINUOUS
  62
3
 10
591.304
 20
810.357
 40
1.2
  0
CIRCLE
  8
1
  6
CONTINUOUS
  62
3
 10
591.304
 20
818.357
 40
1.2
  0
CIRCLE
  8
1
  6
CONTINUOUS
  62
3
 10
591.304
 20
826.357
 40
1.2
  0
CIRCLE
  8
1
  6
CONTINUOUS
  62
3
 10
591.304
 20
834.357
 40
1.2
  0
CIRCLE
  8
1
  6
CONTINUOUS
  62
3
 10
591.304
 20
842.357
 40
1.2
  0
CIRCLE
  8
1
  6
CONTINUOUS
  62
3
 10
591.304
 20
850.357
 40
1.2
  0
CIRCLE
  8
1
  6
CONTINUOUS
  62
3
 10
591.304
 20
858.357
 40
1.2
  0
CIRCLE
  8
1
  6
CONTINUOUS
  62
3
 10
591.304
 20
866.357
 40
1.2
  0
CIRCLE
  8
1
  6
CONTINUOUS
  62
3
 10
591.304
 20
874.357
 40
1.2
  0
CIRCLE
  8
1
  6
CONTINUOUS
  62
3
 10
591.304
 20
882.357
 40
1.2
  0
CIRCLE
  8
1
  6
CONTINUOUS
  62
3
 10
591.304
 20
890.357
 40
1.2
  0
CIRCLE
  8
1
  6
CONTINUOUS
  62
3
 10
591.304
 20
898.357
 40
1.2
  0
CIRCLE
  8
1
  6
CONTINUOUS
  62
3
 10
591.304
 20
906.357
 40
1.2
  0
CIRCLE
  8
1
  6
CONTINUOUS
  62
3
 10
591.304
 20
914.357
 40
1.2
  0
CIRCLE
  8
1
  6
CONTINUOUS
  62
3
 10
591.304
 20
922.357
 40
1.2
  0
CIRCLE
  8
1
  6
CONTINUOUS
  62
3
 10
591.304
 20
930.357
 40
1.2
  0
CIRCLE
  8
1
  6
CONTINUOUS
  62
3
 10
591.304
 20
938.357
 40
1.2
  0
CIRCLE
  8
1
  6
CONTINUOUS
  62
3
 10
591.304
 20
946.357
 40
1.2
  0
CIRCLE
  8
1
  6
CONTINUOUS
  62
3
 10
591.304
 20
954.357
 40
1.2
  0
CIRCLE
  8
1
  6
CONTINUOUS
  62
3
 10
591.304
 20
962.357
 40
1.2
  0
CIRCLE
  8
1
  6
CONTINUOUS
  62
3
 10
591.304
 20
970.357
 40
1.2
  0
CIRCLE
  8
1
  6
CONTINUOUS
  62
3
 10
591.304
 20
978.357
 40
1.2
  0
CIRCLE
  8
1
  6
CONTINUOUS
  62
3
 10
591.304
 20
986.357
 40
1.2
  0
CIRCLE
  8
1
  6
CONTINUOUS
  62
3
 10
591.304
 20
994.357
 40
1.2
  0
CIRCLE
  8
1
  6
CONTINUOUS
  62
3
 10
591.304
 20
1002.36
 40
1.2
  0
CIRCLE
  8
1
  6
CONTINUOUS
  62
3
 10
591.304
 20
1010.36
 40
1.2
  0
CIRCLE
  8
1
  6
CONTINUOUS
  62
3
 10
591.304
 20
1018.36
 40
1.2
  0
CIRCLE
  8
1
  6
CONTINUOUS
  62
3
 10
591.304
 20
1026.36
 40
1.2
  0
CIRCLE
  8
1
  6
CONTINUOUS
  62
3
 10
591.304
 20
1034.36
 40
1.2
  0
CIRCLE
  8
1
  6
CONTINUOUS
  62
3
 10
591.304
 20
1042.36
 40
1.2
  0
CIRCLE
  8
1
  6
CONTINUOUS
  62
3
 10
591.304
 20
1050.36
 40
1.2
  0
CIRCLE
  8
1
  6
CONTINUOUS
  62
3
 10
591.304
 20
1058.36
 40
1.2
  0
CIRCLE
  8
1
  6
CONTINUOUS
  62
3
 10
591.304
 20
1066.36
 40
1.2
  0
CIRCLE
  8
1
  6
CONTINUOUS
  62
3
 10
591.304
 20
1074.36
 40
1.2
  0
CIRCLE
  8
1
  6
CONTINUOUS
  62
3
 10
591.304
 20
1082.36
 40
1.2
  0
CIRCLE
  8
1
  6
CONTINUOUS
  62
3
 10
591.304
 20
1090.36
 40
1.2
  0
CIRCLE
  8
1
  6
CONTINUOUS
  62
3
 10
591.304
 20
1098.36
 40
1.2
  0
CIRCLE
  8
1
  6
CONTINUOUS
  62
3
 10
591.304
 20
1106.36
 40
1.2
  0
CIRCLE
  8
1
  6
CONTINUOUS
  62
3
 10
591.304
 20
1114.36
 40
1.2
  0
CIRCLE
  8
1
  6
CONTINUOUS
  62
3
 10
591.304
 20
1122.36
 40
1.2
  0
CIRCLE
  8
1
  6
CONTINUOUS
  62
3
 10
591.304
 20
1130.36
 40
1.2
  0
CIRCLE
  8
1
  6
CONTINUOUS
  62
3
 10
591.304
 20
1138.36
 40
1.2
  0
CIRCLE
  8
1
  6
CONTINUOUS
  62
3
 10
591.304
 20
1146.36
 40
1.2
  0
CIRCLE
  8
1
  6
CONTINUOUS
  62
3
 10
591.304
 20
1154.36
 40
1.2
  0
CIRCLE
  8
1
  6
CONTINUOUS
  62
3
 10
591.304
 20
1162.36
 40
1.2
  0
CIRCLE
  8
1
  6
CONTINUOUS
  62
3
 10
591.304
 20
1170.36
 40
1.2
  0
CIRCLE
  8
1
  6
CONTINUOUS
  62
3
 10
591.304
 20
1178.36
 40
1.2
  0
CIRCLE
  8
1
  6
CONTINUOUS
  62
3
 10
591.304
 20
1186.36
 40
1.2
  0
CIRCLE
  8
1
  6
CONTINUOUS
  62
3
 10
591.304
 20
1194.36
 40
1.2
  0
CIRCLE
  8
1
  6
CONTINUOUS
  62
3
 10
591.304
 20
1202.36
 40
1.2
  0
CIRCLE
  8
1
  6
CONTINUOUS
  62
3
 10
591.304
 20
1210.36
 40
1.2
  0
CIRCLE
  8
1
  6
CONTINUOUS
  62
3
 10
531.304
 20
1210.36
 40
1.2
  0
CIRCLE
  8
1
  6
CONTINUOUS
  62
3
 10
531.304
 20
1202.36
 40
1.2
  0
CIRCLE
  8
1
  6
CONTINUOUS
  62
3
 10
531.304
 20
1194.36
 40
1.2
  0
CIRCLE
  8
1
  6
CONTINUOUS
  62
3
 10
531.304
 20
1186.36
 40
1.2
  0
CIRCLE
  8
1
  6
CONTINUOUS
  62
3
 10
531.304
 20
1178.36
 40
1.2
  0
CIRCLE
  8
1
  6
CONTINUOUS
  62
3
 10
531.304
 20
1170.36
 40
1.2
  0
CIRCLE
  8
1
  6
CONTINUOUS
  62
3
 10
531.304
 20
1162.36
 40
1.2
  0
CIRCLE
  8
1
  6
CONTINUOUS
  62
3
 10
531.304
 20
1154.36
 40
1.2
  0
CIRCLE
  8
1
  6
CONTINUOUS
  62
3
 10
531.304
 20
1146.36
 40
1.2
  0
CIRCLE
  8
1
  6
CONTINUOUS
  62
3
 10
531.304
 20
1138.36
 40
1.2
  0
CIRCLE
  8
1
  6
CONTINUOUS
  62
3
 10
531.304
 20
1130.36
 40
1.2
  0
CIRCLE
  8
1
  6
CONTINUOUS
  62
3
 10
531.304
 20
1122.36
 40
1.2
  0
CIRCLE
  8
1
  6
CONTINUOUS
  62
3
 10
531.304
 20
1114.36
 40
1.2
  0
CIRCLE
  8
1
  6
CONTINUOUS
  62
3
 10
531.304
 20
1106.36
 40
1.2
  0
CIRCLE
  8
1
  6
CONTINUOUS
  62
3
 10
531.304
 20
1098.36
 40
1.2
  0
CIRCLE
  8
1
  6
CONTINUOUS
  62
3
 10
531.304
 20
1090.36
 40
1.2
  0
CIRCLE
  8
1
  6
CONTINUOUS
  62
3
 10
531.304
 20
1082.36
 40
1.2
  0
CIRCLE
  8
1
  6
CONTINUOUS
  62
3
 10
531.304
 20
1074.36
 40
1.2
  0
CIRCLE
  8
1
  6
CONTINUOUS
  62
3
 10
531.304
 20
1066.36
 40
1.2
  0
CIRCLE
  8
1
  6
CONTINUOUS
  62
3
 10
531.304
 20
1058.36
 40
1.2
  0
CIRCLE
  8
1
  6
CONTINUOUS
  62
3
 10
531.304
 20
1050.36
 40
1.2
  0
CIRCLE
  8
1
  6
CONTINUOUS
  62
3
 10
531.304
 20
1042.36
 40
1.2
  0
CIRCLE
  8
1
  6
CONTINUOUS
  62
3
 10
531.304
 20
1034.36
 40
1.2
  0
CIRCLE
  8
1
  6
CONTINUOUS
  62
3
 10
531.304
 20
1026.36
 40
1.2
  0
CIRCLE
  8
1
  6
CONTINUOUS
  62
3
 10
531.304
 20
1018.36
 40
1.2
  0
CIRCLE
  8
1
  6
CONTINUOUS
  62
3
 10
531.304
 20
1010.36
 40
1.2
  0
CIRCLE
  8
1
  6
CONTINUOUS
  62
3
 10
531.304
 20
1002.36
 40
1.2
  0
CIRCLE
  8
1
  6
CONTINUOUS
  62
3
 10
531.304
 20
994.357
 40
1.2
  0
CIRCLE
  8
1
  6
CONTINUOUS
  62
3
 10
531.304
 20
986.357
 40
1.2
  0
CIRCLE
  8
1
  6
CONTINUOUS
  62
3
 10
531.304
 20
978.357
 40
1.2
  0
CIRCLE
  8
1
  6
CONTINUOUS
  62
3
 10
531.304
 20
970.357
 40
1.2
  0
CIRCLE
  8
1
  6
CONTINUOUS
  62
3
 10
531.304
 20
962.357
 40
1.2
  0
CIRCLE
  8
1
  6
CONTINUOUS
  62
3
 10
531.304
 20
954.357
 40
1.2
  0
CIRCLE
  8
1
  6
CONTINUOUS
  62
3
 10
531.304
 20
946.357
 40
1.2
  0
CIRCLE
  8
1
  6
CONTINUOUS
  62
3
 10
531.304
 20
938.357
 40
1.2
  0
CIRCLE
  8
1
  6
CONTINUOUS
  62
3
 10
531.304
 20
930.357
 40
1.2
  0
CIRCLE
  8
1
  6
CONTINUOUS
  62
3
 10
531.304
 20
922.357
 40
1.2
  0
CIRCLE
  8
1
  6
CONTINUOUS
  62
3
 10
531.304
 20
914.357
 40
1.2
  0
CIRCLE
  8
1
  6
CONTINUOUS
  62
3
 10
531.304
 20
906.357
 40
1.2
  0
CIRCLE
  8
1
  6
CONTINUOUS
  62
3
 10
531.304
 20
898.357
 40
1.2
  0
CIRCLE
  8
1
  6
CONTINUOUS
  62
3
 10
531.304
 20
890.357
 40
1.2
  0
CIRCLE
  8
1
  6
CONTINUOUS
  62
3
 10
531.304
 20
882.357
 40
1.2
  0
CIRCLE
  8
1
  6
CONTINUOUS
  62
3
 10
531.304
 20
874.357
 40
1.2
  0
CIRCLE
  8
1
  6
CONTINUOUS
  62
3
 10
531.304
 20
866.357
 40
1.2
  0
CIRCLE
  8
1
  6
CONTINUOUS
  62
3
 10
531.304
 20
858.357
 40
1.2
  0
CIRCLE
  8
1
  6
CONTINUOUS
  62
3
 10
531.304
 20
850.357
 40
1.2
  0
CIRCLE
  8
1
  6
CONTINUOUS
  62
3
 10
531.304
 20
842.357
 40
1.2
  0
CIRCLE
  8
1
  6
CONTINUOUS
  62
3
 10
531.304
 20
834.357
 40
1.2
  0
CIRCLE
  8
1
  6
CONTINUOUS
  62
3
 10
531.304
 20
826.357
 40
1.2
  0
CIRCLE
  8
1
  6
CONTINUOUS
  62
3
 10
531.304
 20
818.357
 40
1.2
  0
CIRCLE
  8
1
  6
CONTINUOUS
  62
3
 10
531.304
 20
810.357
 40
1.2
  0
CIRCLE
  8
1
  6
CONTINUOUS
  62
3
 10
531.304
 20
802.357
 40
1.2
  0
CIRCLE
  8
1
  6
CONTINUOUS
  62
3
 10
531.304
 20
794.357
 40
1.2
  0
CIRCLE
  8
1
  6
CONTINUOUS
  62
3
 10
531.304
 20
786.357
 40
1.2
  0
CIRCLE
  8
1
  6
CONTINUOUS
  62
3
 10
531.304
 20
778.357
 40
1.2
  0
CIRCLE
  8
1
  6
CONTINUOUS
  62
3
 10
531.304
 20
770.357
 40
1.2
  0
CIRCLE
  8
1
  6
CONTINUOUS
  62
3
 10
531.304
 20
762.357
 40
1.2
  0
CIRCLE
  8
1
  6
CONTINUOUS
  62
3
 10
531.304
 20
754.357
 40
1.2
  0
CIRCLE
  8
1
  6
CONTINUOUS
  62
3
 10
531.304
 20
746.357
 40
1.2
  0
CIRCLE
  8
1
  6
CONTINUOUS
  62
3
 10
531.304
 20
738.357
 40
1.2
  0
CIRCLE
  8
1
  6
CONTINUOUS
  62
3
 10
531.304
 20
730.357
 40
1.2
  0
ARC
  8
1
  6
CONTINUOUS
  62
7
 10
674.304
 20
564.1
 40
2
 50
270
 51
360
  0
ARC
  8
1
  6
CONTINUOUS
  62
7
 10
653.304
 20
564.1
 40
2
 50
180
 51
270
  0
ARC
  8
1
  6
CONTINUOUS
  62
7
 10
929.304
 20
564.1
 40
2
 50
270
 51
360
  0
ARC
  8
1
  6
CONTINUOUS
  62
7
 10
908.304
 20
564.1
 40
2
 50
180
 51
270
  0
ARC
  8
1
  6
CONTINUOUS
  62
3
 10
549.004
 20
659.207
 40
9.7
 50
137.92
 51
180
  0
ARC
  8
1
  6
CONTINUOUS
  62
3
 10
534.604
 20
672.207
 40
9.7
 50
317.92
 51
360
  0
ARC
  8
1
  6
CONTINUOUS
  62
3
 10
588.004
 20
672.207
 40
9.7
 50
180
 51
222.08
  0
ARC
  8
1
  6
CONTINUOUS
  62
3
 10
561.304
 20
621.687
 40
10.85
 50
242.56
 51
297.44
  0
ARC
  8
1
  6
CONTINUOUS
  62
3
 10
568.304
 20
624.707
 40
1.5
 50
131.81
 51
180
  0
ARC
  8
1
  6
CONTINUOUS
  62
3
 10
554.304
 20
624.707
 40
1.5
 50
0
 51
48.19
  0
ARC
  8
1
  6
CONTINUOUS
  62
3
 10
568.339
 20
622.951
 40
8.755
 50
89.3
 51
117.46
  0
ARC
  8
1
  6
CONTINUOUS
  62
3
 10
568.339
 20
615.847
 40
15.86
 50
64.99
 51
90.38
  0
ARC
  8
1
  6
CONTINUOUS
  62
3
 10
568.339
 20
644.463
 40
8.755
 50
242.54
 51
270.7
  0
ARC
  8
1
  6
CONTINUOUS
  62
3
 10
568.339
 20
651.567
 40
15.86
 50
269.63
 51
295.02
  0
ARC
  8
1
  6
CONTINUOUS
  62
3
 10
561.304
 20
633.707
 40
4.5
 50
36.99
 51
323.01
  0
ARC
  8
1
  6
CONTINUOUS
  62
3
 10
573.604
 20
659.207
 40
9.7
 50
0
 51
42.08
  0
ARC
  8
1
  6
CONTINUOUS
  62
3
 10
586.693
 20
633.708
 40
3.7
 50
288.92
 51
431.07
  0
ARC
  8
1
  6
CONTINUOUS
  62
3
 10
746.693
 20
633.708
 40
3.7
 50
288.92
 51
431.07
  0
ARC
  8
1
  6
CONTINUOUS
  62
3
 10
733.604
 20
659.207
 40
9.7
 50
0
 51
42.08
  0
ARC
  8
1
  6
CONTINUOUS
  62
3
 10
721.304
 20
633.707
 40
4.5
 50
36.99
 51
323.01
  0
ARC
  8
1
  6
CONTINUOUS
  62
3
 10
728.339
 20
651.567
 40
15.86
 50
269.63
 51
295.02
  0
ARC
  8
1
  6
CONTINUOUS
  62
3
 10
728.339
 20
644.463
 40
8.755
 50
242.54
 51
270.7
  0
ARC
  8
1
  6
CONTINUOUS
  62
3
 10
728.339
 20
615.847
 40
15.86
 50
64.99
 51
90.38
  0
ARC
  8
1
  6
CONTINUOUS
  62
3
 10
728.339
 20
622.951
 40
8.755
 50
89.3
 51
117.46
  0
ARC
  8
1
  6
CONTINUOUS
  62
3
 10
714.304
 20
624.707
 40
1.5
 50
0
 51
48.19
  0
ARC
  8
1
  6
CONTINUOUS
  62
3
 10
728.304
 20
624.707
 40
1.5
 50
131.81
 51
180
  0
ARC
  8
1
  6
CONTINUOUS
  62
3
 10
721.304
 20
621.687
 40
10.85
 50
242.56
 51
297.44
  0
ARC
  8
1
  6
CONTINUOUS
  62
3
 10
748.004
 20
672.207
 40
9.7
 50
180
 51
222.08
  0
ARC
  8
1
  6
CONTINUOUS
  62
3
 10
694.604
 20
672.207
 40
9.7
 50
317.92
 51
360
  0
ARC
  8
1
  6
CONTINUOUS
  62
3
 10
709.004
 20
659.207
 40
9.7
 50
137.92
 51
180
  0
ARC
  8
1
  6
CONTINUOUS
  62
3
 10
942.304
 20
601.207
 40
6.5
 50
270
 51
450
  0
ARC
  8
1
  6
CONTINUOUS
  62
3
 10
869.004
 20
659.207
 40
9.7
 50
137.92
 51
180
  0
ARC
  8
1
  6
CONTINUOUS
  62
3
 10
854.604
 20
672.207
 40
9.7
 50
317.92
 51
360
  0
ARC
  8
1
  6
CONTINUOUS
  62
3
 10
908.004
 20
672.207
 40
9.7
 50
180
 51
222.08
  0
ARC
  8
1
  6
CONTINUOUS
  62
3
 10
881.304
 20
621.687
 40
10.85
 50
242.56
 51
297.44
  0
ARC
  8
1
  6
CONTINUOUS
  62
3
 10
888.304
 20
624.707
 40
1.5
 50
131.81
 51
180
  0
ARC
  8
1
  6
CONTINUOUS
  62
3
 10
874.304
 20
624.707
 40
1.5
 50
0
 51
48.19
  0
ARC
  8
1
  6
CONTINUOUS
  62
3
 10
888.339
 20
622.951
 40
8.755
 50
89.3
 51
117.46
  0
ARC
  8
1
  6
CONTINUOUS
  62
3
 10
888.339
 20
615.847
 40
15.86
 50
64.99
 51
90.38
  0
ARC
  8
1
  6
CONTINUOUS
  62
3
 10
888.339
 20
644.463
 40
8.755
 50
242.54
 51
270.7
  0
ARC
  8
1
  6
CONTINUOUS
  62
3
 10
888.339
 20
651.567
 40
15.86
 50
269.63
 51
295.02
  0
ARC
  8
1
  6
CONTINUOUS
  62
3
 10
881.304
 20
633.707
 40
4.5
 50
36.99
 51
323.01
  0
ARC
  8
1
  6
CONTINUOUS
  62
3
 10
893.604
 20
659.207
 40
9.7
 50
0
 51
42.08
  0
ARC
  8
1
  6
CONTINUOUS
  62
3
 10
906.692
 20
633.709
 40
3.7
 50
288.92
 51
431.07
  0
ARC
  8
1
  6
CONTINUOUS
  62
3
 10
426.693
 20
633.708
 40
3.7
 50
288.92
 51
431.07
  0
ARC
  8
1
  6
CONTINUOUS
  62
3
 10
389.004
 20
659.207
 40
9.7
 50
137.92
 51
180
  0
ARC
  8
1
  6
CONTINUOUS
  62
3
 10
374.604
 20
672.207
 40
9.7
 50
317.92
 51
360
  0
ARC
  8
1
  6
CONTINUOUS
  62
3
 10
428.004
 20
672.207
 40
9.7
 50
180
 51
222.08
  0
ARC
  8
1
  6
CONTINUOUS
  62
3
 10
401.304
 20
621.687
 40
10.85
 50
242.56
 51
297.44
  0
ARC
  8
1
  6
CONTINUOUS
  62
3
 10
408.304
 20
624.707
 40
1.5
 50
131.81
 51
180
  0
ARC
  8
1
  6
CONTINUOUS
  62
3
 10
394.304
 20
624.707
 40
1.5
 50
0
 51
48.19
  0
ARC
  8
1
  6
CONTINUOUS
  62
3
 10
408.339
 20
622.951
 40
8.755
 50
89.3
 51
117.46
  0
ARC
  8
1
  6
CONTINUOUS
  62
3
 10
408.339
 20
615.847
 40
15.86
 50
64.99
 51
90.38
  0
ARC
  8
1
  6
CONTINUOUS
  62
3
 10
408.339
 20
644.463
 40
8.755
 50
242.54
 51
270.7
  0
ARC
  8
1
  6
CONTINUOUS
  62
3
 10
408.339
 20
651.567
 40
15.86
 50
269.63
 51
295.02
  0
ARC
  8
1
  6
CONTINUOUS
  62
3
 10
401.304
 20
633.707
 40
4.5
 50
36.99
 51
323.01
  0
ARC
  8
1
  6
CONTINUOUS
  62
3
 10
413.604
 20
659.207
 40
9.7
 50
0
 51
42.08
  0
ARC
  8
1
  6
CONTINUOUS
  62
3
 10
341.626
 20
590.207
 40
4
 50
188.55
 51
270
  0
ARC
  8
1
  6
CONTINUOUS
  62
3
 10
341.416
 20
591.707
 40
4
 50
187.38
 51
270
  0
ARC
  8
1
  6
CONTINUOUS
  62
3
 10
414.804
 20
601.207
 40
78
 50
171.45
 51
188.55
  0
ARC
  8
1
  6
CONTINUOUS
  62
3
 10
341.626
 20
612.207
 40
4
 50
90
 51
171.45
  0
ARC
  8
1
  6
CONTINUOUS
  62
3
 10
341.416
 20
610.707
 40
4
 50
90
 51
172.62
  0
ARC
  8
1
  6
CONTINUOUS
  62
7
 10
1680.77
 20
377.018
 40
2
 50
0
 51
180
  0
ARC
  8
1
  6
CONTINUOUS
  62
7
 10
1680.77
 20
351.018
 40
2
 50
180
 51
360
  0
ARC
  8
1
  6
CONTINUOUS
  62
7
 10
1695.77
 20
351.018
 40
2
 50
180
 51
360
  0
ARC
  8
1
  6
CONTINUOUS
  62
7
 10
1710.77
 20
351.018
 40
2
 50
180
 51
360
  0
ARC
  8
1
  6
CONTINUOUS
  62
7
 10
1725.77
 20
351.018
 40
2
 50
180
 51
360
  0
ARC
  8
1
  6
CONTINUOUS
  62
7
 10
1740.77
 20
351.018
 40
2
 50
180
 51
360
  0
ARC
  8
1
  6
CONTINUOUS
  62
7
 10
1755.77
 20
351.018
 40
2
 50
180
 51
360
  0
ARC
  8
1
  6
CONTINUOUS
  62
7
 10
1695.77
 20
377.018
 40
2
 50
0
 51
180
  0
ARC
  8
1
  6
CONTINUOUS
  62
7
 10
1710.77
 20
377.018
 40
2
 50
0
 51
180
  0
ARC
  8
1
  6
CONTINUOUS
  62
7
 10
1725.77
 20
377.018
 40
2
 50
0
 51
180
  0
ARC
  8
1
  6
CONTINUOUS
  62
7
 10
1740.77
 20
377.018
 40
2
 50
0
 51
180
  0
ARC
  8
1
  6
CONTINUOUS
  62
7
 10
1755.77
 20
377.018
 40
2
 50
0
 51
180
  0
ARC
  8
1
  6
CONTINUOUS
  62
7
 10
1575.77
 20
377.018
 40
2
 50
0
 51
180
  0
ARC
  8
1
  6
CONTINUOUS
  62
7
 10
1590.77
 20
377.018
 40
2
 50
0
 51
180
  0
ARC
  8
1
  6
CONTINUOUS
  62
7
 10
1605.77
 20
377.018
 40
2
 50
0
 51
180
  0
ARC
  8
1
  6
CONTINUOUS
  62
7
 10
1620.77
 20
377.018
 40
2
 50
0
 51
180
  0
ARC
  8
1
  6
CONTINUOUS
  62
7
 10
1635.77
 20
377.018
 40
2
 50
0
 51
180
  0
ARC
  8
1
  6
CONTINUOUS
  62
7
 10
1650.77
 20
377.018
 40
2
 50
0
 51
180
  0
ARC
  8
1
  6
CONTINUOUS
  62
7
 10
1665.77
 20
377.018
 40
2
 50
0
 51
180
  0
ARC
  8
1
  6
CONTINUOUS
  62
7
 10
1575.77
 20
351.018
 40
2
 50
180
 51
360
  0
ARC
  8
1
  6
CONTINUOUS
  62
7
 10
1590.77
 20
351.018
 40
2
 50
180
 51
360
  0
ARC
  8
1
  6
CONTINUOUS
  62
7
 10
1605.77
 20
351.018
 40
2
 50
180
 51
360
  0
ARC
  8
1
  6
CONTINUOUS
  62
7
 10
1620.77
 20
351.018
 40
2
 50
180
 51
360
  0
ARC
  8
1
  6
CONTINUOUS
  62
7
 10
1635.77
 20
351.018
 40
2
 50
180
 51
360
  0
ARC
  8
1
  6
CONTINUOUS
  62
7
 10
1650.77
 20
351.018
 40
2
 50
180
 51
360
  0
ARC
  8
1
  6
CONTINUOUS
  62
7
 10
1665.77
 20
351.018
 40
2
 50
180
 51
360
  0
ARC
  8
1
  6
CONTINUOUS
  62
7
 10
1378.77
 20
351.018
 40
2
 50
180
 51
360
  0
ARC
  8
1
  6
CONTINUOUS
  62
7
 10
1393.77
 20
351.018
 40
2
 50
180
 51
360
  0
ARC
  8
1
  6
CONTINUOUS
  62
7
 10
1408.77
 20
351.018
 40
2
 50
180
 51
360
  0
ARC
  8
1
  6
CONTINUOUS
  62
7
 10
1423.77
 20
351.018
 40
2
 50
180
 51
360
  0
ARC
  8
1
  6
CONTINUOUS
  62
7
 10
1438.77
 20
351.018
 40
2
 50
180
 51
360
  0
ARC
  8
1
  6
CONTINUOUS
  62
7
 10
1453.77
 20
351.018
 40
2
 50
180
 51
360
  0
ARC
  8
1
  6
CONTINUOUS
  62
7
 10
1468.77
 20
351.018
 40
2
 50
180
 51
360
  0
ARC
  8
1
  6
CONTINUOUS
  62
7
 10
1378.77
 20
377.018
 40
2
 50
0
 51
180
  0
ARC
  8
1
  6
CONTINUOUS
  62
7
 10
1393.77
 20
377.018
 40
2
 50
0
 51
180
  0
ARC
  8
1
  6
CONTINUOUS
  62
7
 10
1408.77
 20
377.018
 40
2
 50
0
 51
180
  0
ARC
  8
1
  6
CONTINUOUS
  62
7
 10
1423.77
 20
377.018
 40
2
 50
0
 51
180
  0
ARC
  8
1
  6
CONTINUOUS
  62
7
 10
1438.77
 20
377.018
 40
2
 50
0
 51
180
  0
ARC
  8
1
  6
CONTINUOUS
  62
7
 10
1453.77
 20
377.018
 40
2
 50
0
 51
180
  0
ARC
  8
1
  6
CONTINUOUS
  62
7
 10
1468.77
 20
377.018
 40
2
 50
0
 51
180
  0
ARC
  8
1
  6
CONTINUOUS
  62
7
 10
1288.77
 20
377.018
 40
2
 50
0
 51
180
  0
ARC
  8
1
  6
CONTINUOUS
  62
7
 10
1303.77
 20
377.018
 40
2
 50
0
 51
180
  0
ARC
  8
1
  6
CONTINUOUS
  62
7
 10
1318.77
 20
377.018
 40
2
 50
0
 51
180
  0
ARC
  8
1
  6
CONTINUOUS
  62
7
 10
1333.77
 20
377.018
 40
2
 50
0
 51
180
  0
ARC
  8
1
  6
CONTINUOUS
  62
7
 10
1348.77
 20
377.018
 40
2
 50
0
 51
180
  0
ARC
  8
1
  6
CONTINUOUS
  62
7
 10
1288.77
 20
351.018
 40
2
 50
180
 51
360
  0
ARC
  8
1
  6
CONTINUOUS
  62
7
 10
1303.77
 20
351.018
 40
2
 50
180
 51
360
  0
ARC
  8
1
  6
CONTINUOUS
  62
7
 10
1318.77
 20
351.018
 40
2
 50
180
 51
360
  0
ARC
  8
1
  6
CONTINUOUS
  62
7
 10
1333.77
 20
351.018
 40
2
 50
180
 51
360
  0
ARC
  8
1
  6
CONTINUOUS
  62
7
 10
1348.77
 20
351.018
 40
2
 50
180
 51
360
  0
ARC
  8
1
  6
CONTINUOUS
  62
7
 10
1363.77
 20
351.018
 40
2
 50
180
 51
360
  0
ARC
  8
1
  6
CONTINUOUS
  62
7
 10
1363.77
 20
377.018
 40
2
 50
0
 51
180
  0
ARC
  8
1
  6
CONTINUOUS
  62
7
 10
1925.67
 20
401.357
 40
2
 50
270
 51
360
  0
ARC
  8
1
  6
CONTINUOUS
  62
7
 10
1925.67
 20
422.357
 40
2
 50
0
 51
90
  0
ARC
  8
1
  6
CONTINUOUS
  62
3
 10
1278.56
 20
226.357
 40
2.5
 50
270
 51
352.87
  0
ARC
  8
1
  6
CONTINUOUS
  62
3
 10
1250.97
 20
226.357
 40
2.5
 50
187.13
 51
270
  0
ARC
  8
1
  6
CONTINUOUS
  62
3
 10
1793.56
 20
226.357
 40
2.5
 50
270
 51
352.87
  0
ARC
  8
1
  6
CONTINUOUS
  62
3
 10
1765.97
 20
226.357
 40
2.5
 50
187.13
 51
270
  0
ARC
  8
1
  6
CONTINUOUS
  62
3
 10
1817.29
 20
258.057
 40
0.8
 50
10
 51
90
  0
TEXT
  8
17
  62
3
  7
STANDARD
 10
1355.45
 20
79.3237
 40
10
 50
0
  1
型　式
 41
1
 51
0
  0
TEXT
  8
17
  62
3
  7
STANDARD
 10
1355.45
 20
121.748
 40
10
 50
0
  1
製品名
 41
1
 51
0
  0
TEXT
  8
1
  62
2
  7
STANDARD
 10
1716.43
 20
60.2229
 40
10
 50
0
  1
．　　．　　．
 41
1
 51
0
  0
TEXT
  8
1
  62
3
  7
STANDARD
 10
1678.2
 20
80.1369
 40
10
 50
0
  1
日　付
 41
1
 51
0
  0
TEXT
  8
1
  62
3
  7
STANDARD
 10
1679.89
 20
122.561
 40
10
 50
0
  1
縮　尺
 41
1
 51
0
  0
TEXT
  8
1
  62
3
  7
STANDARD
 10
1815.09
 20
124.264
 40
10
 50
0
  1
ガス種
 41
1
 51
0
  0
TEXT
  8
1
  62
3
  7
STANDARD
 10
1815.09
 20
82.1387
 40
10
 50
0
  1
ガス消費量
 41
1
 51
0
  0
TEXT
  8
17
  62
3
  7
STANDARD
 10
1964.09
 20
121.748
 40
10
 50
0
  1
ＮＯ
 41
1
 51
0
  0
TEXT
  8
17
  62
3
  7
STANDARD
 10
114.914
 20
121.748
 40
10
 50
0
  1
仕　様
 41
1
 51
0
  0
TEXT
  8
1
  62
7
  7
STANDARD
 10
1018.95
 20
57.1352
 40
40
 50
0
  1
アイジィエー
 41
1
 51
0
  0
TEXT
  8
1
  62
4
  7
STANDARD
 10
851.523
 20
64.3002
 40
25
 50
0
  1
有
 41
1
 51
0
  0
TEXT
  8
1
  62
4
  7
STANDARD
 10
876.523
 20
64.3002
 40
25
 50
0
  1
 
 41
0.5
 51
0
  0
TEXT
  8
1
  62
4
  7
STANDARD
 10
889.023
 20
64.3002
 40
25
 50
0
  1
限
 41
1
 51
0
  0
TEXT
  8
1
  62
4
  7
STANDARD
 10
914.023
 20
64.3002
 40
25
 50
0
  1
 
 41
0.5
 51
0
  0
TEXT
  8
1
  62
4
  7
STANDARD
 10
926.523
 20
64.3002
 40
25
 50
0
  1
会
 41
1
 51
0
  0
TEXT
  8
1
  62
4
  7
STANDARD
 10
951.523
 20
64.3002
 40
25
 50
0
  1
 
 41
0.5
 51
0
  0
TEXT
  8
1
  62
4
  7
STANDARD
 10
964.023
 20
64.3002
 40
25
 50
0
  1
社
 41
1
 51
0
  0
TEXT
  8
1
  62
4
  7
STANDARD
 10
919.013
 20
106.467
 40
22.5
 50
0
  1
『日本の美味しいを創る』
 41
1
 51
0
  0
TEXT
  8
1
  62
2
  7
STANDARD
 10
1718.01
 20
106.033
 40
16
 50
0
  1
１：５
 41
1
 51
0
  0
TEXT
  8
1
  62
3
  7
STANDARD
 10
1475.41
 20
65.8875
 40
16
 50
0
  1
ＴＩ－６２
 41
1
 51
0
  0
TEXT
  8
1
  62
3
  7
STANDARD
 10
1397.14
 20
99.7081
 40
25
 50
0
  1
ガスたい焼き器
 41
1
 51
0
  0
TEXT
  8
1
  62
3
  7
STANDARD
 10
1572.14
 20
99.7081
 40
25
 50
0
  1
 2
 41
0.5
 51
0
  0
TEXT
  8
1
  62
3
  7
STANDARD
 10
1597.14
 20
99.7081
 40
25
 50
0
  1
丁掛
 41
1
 51
0
  0
TEXT
  8
1
  62
3
  7
STANDARD
 10
1061.62
 20
307.857
 40
20
 50
90
  1
200
 41
0.5
 51
0
  0
TEXT
  8
1
  62
3
  7
STANDARD
 10
1061.62
 20
946.857
 40
20
 50
90
  1
565
 41
0.5
 51
0
  0
TEXT
  8
1
  62
3
  7
STANDARD
 10
624.804
 20
494.536
 40
20
 50
0
  1
655
 41
0.5
 51
0
  0
TEXT
  8
1
  62
3
  7
STANDARD
 10
624.804
 20
1300.68
 40
20
 50
0
  1
655
 41
0.5
 51
0
  0
TEXT
  8
1
  62
3
  7
STANDARD
 10
1512.27
 20
494.536
 40
20
 50
0
  1
565
 41
0.5
 51
0
  0
TEXT
  8
1
  62
3
  7
STANDARD
 10
1169.46
 20
307.857
 40
20
 50
90
  1
200
 41
0.5
 51
0
  0
ENDSEC
  0
EOF
